PrimaNota.ru - самый крупный в мире бесплатный архив песенных текстов, аккордов, табулатур и нот


Modern Day Escape - City Of Thieves - таба, видео

Регистрация Запомнить меня
Войти через:  Facebook Google Twitter Vk Yandex Mail.ru

Modern Day Escape - City Of Thieves - таба, видео

Печатать
Просмотров: 64
City of Thieves Lead
Tuning Drop C#
Comment: A number above a bar line means repeat.
(ie 1 means "repeat once")
    |
    |
    |
   etc


Intro

Eb :| ----0-*---------|--------0-*----- x2|0---------------|----------------|
Bb :| 6-*---6-*-----6-|*-6-*-6-*-6-*--- | |----------------|----------------|
Gb :|**-5-*---5-*-5-*-|5-*-5-----*-5-5-*| |----------------|----------------|
Db :|*----------0-*---|----------------*| |----------------|----------------|
Ab :| ----------------|---------------- | |----------------|----------------|
Db :| ----------------|---------------- | |----------------|----------------|
     P.M-|

Eb :| ---------0-*-----|------------------------------------------------|
Bb :| ---------6-*-----|------------------------------------------------|
Gb :|*---------5-*-----|------------------------------------------------|
Db :|*0-----00-0-*0-*0-|-t12-p0-t12-p0-t12-p0-t10-p0-t10-p0-t8-p0-t8-p0-|
Ab :| 0-----00-0-*0-*0-|---*--------------------------------------------|
Db :| 0-----00-0-*0-*0-|---*--------------------------------------------|
           P.M|

Eb :---------0-*-----|-------------------- 1
Bb :---------6-*-----|-------------------- |
Gb :---------5-*-----|--------------------*|
Db :0-----00-0-*0-*0-|0000-10-00000-10----*|
Ab :0-----00-0-*0-*0-|0000--8-00000--8---- |
Db :0-----00-0-*0-*0-|0000--8-00000--8---- |
         P.M-|        P.M-|   P.M--|


Verse 1

Eb :|----------------|
Bb :|----------------|
Gb :|----------------|
Db :|*---------------|
Ab :|*---------------|
Db :|0-00-00--*00-00-|
 
Eb :--0-------------|*---------------|--8--------*------|
Bb :----6-----------|*---------------|----6-----10------|
Gb :------5---------|*---------------|------7------7----|
Db :----------------|----------------|---------------10-|
Ab :----------------|----------------|------------------|
Db :-*--------------|0-00-00--*00-00-|-*----------------|

Eb :----------------|-----------------|*---------------|
Bb :*---------------|--8-10-----------|*---------------|
Gb :*---------------|-------7---------|*---------------|
Db :*---------------|-----------------|----------------|
Ab :----------------|-----------------|----------------|
Db :8-88-88--*-88-88|--*--------------|7-77-77--*-77-77|

Eb :--12--------*-----|
Bb :-----8------*-----|
Gb :-------10---*-----|
Db :------------------|
Ab :------------8-*---|
Db :---*----------8-7-|


Chorus 1 & 2

Eb :0-----000-*0-*0-|--0-0-0-0-0-0-0-|
Bb :6-----666-*6-*6-|--6-6-6-6-6-6-6-|
Gb :5-----555-*5-*5-|--5-5-5-5-5-5-5-|
Db :0-----000-*0-*0-|--0-0-0-0-0-0-0-|
Ab :0-----000-*0-*0-|--0-0-0-0-0-0-0-|
Db :0-----000-*0-*0-|--0-0-0-0-0-0-0-|
        P.M| (first two of triplet)

Eb :-x----x--x-x-x-*-x-*-x-|---x--x--x--x--x--x--x-|0---0-000-*0-*0-|
Bb :10---10-101010-*10-*10-|--10-10-10-10-10-10-10-|8---8-888-*8-*8-|
Gb :10---10-101010-*10-*10-|--10-10-10-10-10-10-10-|5---5-555-*5-*5-|
Db :-8----8--8-8-8-*-8-*-8-|---8--8--8--8--8--8--8-|0---0-000-*0-*0-|
Ab :-8----8--8-8-8-*-8-*-8-|---8--8--8--8--8--8--8-|*---------------|
Db :-8----8--8-8-8-*-8-*-8-|---8--8--8--8--8--8--8-|*---------------|
             P.M|                                        P.M 
             (palm mute first two of triplet)            (palm mute first two of triplet)

Eb :--0-0-0-0-0-0-0-|0---0-000-*0-*0-|---*-----------------|
Bb :--8-8-8-8-8-8-8-|5---5-555-*5-*5-|---*-----------------|
Gb :--5-5-5-5-5-5-5-|5---5-555-*5-*5-|--12-12-12-12-9-9-10-|
Db :--0-0-0-0-0-0-0-|3---3-333-*3-*3-|---x--x--x--x-x-x--x-|
Ab :----------------|3---3-333-*3-*3-|--10-10-10-10-7-7--8-|
Db :----------------|3---3-333-*3-*3-|---*-----------------|
                          P.M
                          (palm mute first two of triplet)

Eb :0-----000-*0-*0-|--5--*--5--*--5-|-x----x--x-x-x-*-x-*-x-|
Bb :6-----666-*6-*6-|--*-6--*--6--*--|10---10-101010-*10-*10-|
Gb :5-----555-*5-*5-|--*---5--*--5---|10---10-101010-*10-*10-|
Db :0-----000-*0-*0-|--*-------------|-8----8--8-8-8-*-8-*-8-|
Ab :0-----000-*0-*0-|--*-------------|-8----8--8-8-8-*-8-*-8-|
Db :0-----000-*0-*0-|--*-------------|-8----8--8-8-8-*-8-*-8-|
         P.M-|                                P.M-|
         (palm mute first two of triplet)       (palm mute first two of triplet)
 
Eb :---------------------|0---0-000-*0-*0-|--*-------------|
Bb :--13---*--13---*-----|8---8-888-*8-*8-|--8--*--8--*----|
Gb :---*-10--*---10--*10-|5---5-555-*5-*5-|--*-5--*--5--*5-|
Db :---*----8---*---8----|0---0-000-*0-*0-|--*---0--*--0--*|
Ab :---*-----------------|----------------|----------------|
Db :---*-----------------|----------------|----------------|
                               P.M
                               (palm mute first two of triplet)

Eb :5---5-555-*5-*5-|---*-----------------|
Bb :6---6-666-*6-*6-|---*-----------------|
Gb :x---x-xxx-*x-*x-|--12-12-12-12-9-9-10-|
Db :5---5-555-*5-*5-|---x--x--x--x-x-x--x-|
Ab :5---5-555-*5-*5-|--10-10-10-10-7-7--8-|
Db :5---5-555-*5-*5-|---*-----------------|
         P.M
         (palm mute first two of triplet)


Verse 2

Eb :----------------|
Bb :----------------|
Gb :*---------------|
Db :0---0-0-0-0-0-0-|
Ab :0---0-0-0-0-0-0-|
Db :0---0-0-0-0-0-0-|
        P.M---------|

Eb :------------------|----------------|
Bb :------------------|----------------|
Gb :------------------|----------------|
Db :0-3-*-2-*---------|0---0-0-0-0-0-0-|
Ab :0-3-*-3-*---------|0---0-0-0-0-0-0-|
Db :0-3-*-2-*-3-/7-p0-|0---0-0-0-0-0-0-|
  P.M                      P.M---------|

Eb :--------------------------------------|----------------|
Bb :--------------------------------------|----------------|
Gb :--------------------------------------|----------------|
Db :0*------------------------------------|0---0-0-0-0-0-0-|
Ab :0*--------------0-h5-h8-p5-p0-h4-h7-h4|0---0-0-0-0-0-0-|
Db :0*0-h5-h7-p5-p0*----------------------|0---0-0-0-0-0-0-|
  P.M                                          P.M---------|

Eb :-----------------|----------------|
Bb :-----------------|----------------|
Gb :-----------------|----------------|
Db :0-3-*-2-*------0-|---0---0---0---0|
Ab :0-3-*-3-*------0-|---0---0---0---0|
Db :0-3-*-2-*-3-/7-0-|---0---0---0---0|
  P.M                   PM------------|

Eb :-----------------------------------------|
Bb :-----------------------------------------|
Gb :-----------------------------------------|
Db :-*---------------------------------------|
Ab :-*---------------0-h8-h12-p8-p0-h7-h10-h7|
Db :-*0-h8-h12-p8-p0*------------------------|
                                                 

Eb :----------------|----------------|-------------------|
Bb :----------------|----------------|-------------------|
Gb :----------------|----------------|-------------------|
Db :--00000000*-00*-|0---00*-00*-00*-|--000000-5*0*<2>--*|
Ab :--00000000*-00*-|0---00*-00*-00*-|--000000-5*0*------|
Db :--00000000*-00*-|0---00*-00*-00*-|--000000-5*0*------|
      P.M-----------|   P.M-----------------------|

Eb :----------------|----------------|----------------|-------------------|
Bb :----------------|----------------|----------------|-------------------|
Gb :----------------|----------------|----------------|-------------------|
Db :0---00*-00*-00*-|--00000000*-00*-|0---00*-00*-00*-|--000000-*---------|
Ab :0---00*-00*-00*-|--00000000*-00*-|0---00*-00*-00*-|--000000-8-*-------|
Db :0---00*-00*-00*-|--00000000*-00*-|0---00*-00*-00*-|--000000-*-8-b7----|
       P.M----------|  P.M-----------|   P.M-------------------|


Bridge

Eb :0---------------|----------------|
Bb :6---------------|----------------|
Gb :5---------------|----------------|
Db :0---------------|----------------|
Ab :0---------------|----------------|
Db :0---------------|----------------|

Eb :-x---------------|----------------|0---------------|----------------|
Bb :10---------------|----------------|8---------------|----------------|
Gb :10---------------|----------------|5---------------|----------------|
Db :-8---------------|----------------|0---------------|----------------|
Ab :-8---------------|----------------|x---------------|----------------|
Db :-8---------------|----------------|7---------------|----------------|

Eb :0---------------|----------------|0-------------5-|------5----*--5-|
Bb :5---------------|----------------|6---------------|--6--*----6--*--|
Gb :5---------------|----------------|5---------------|----5--*----5---|
Db :3---------------|----------------|0---------------|----------------|
Ab :3---------------|----------------|0---------------|----------------|
Db :3---------------|----------------|0---------------|----------------|

Eb :-x---------------|---------------------|0---------------|
Bb :10---------------|--13---*--13---*-----|8-------------8-|
Gb :10---------------|-----10--*---10--*10-|5---------------|
Db :-8---------------|--------8---*---8----|0---------------|
Ab :-8---------------|---------------------|x---------------|
Db :-8---------------|---------------------|7---------------|

Eb :----------------|*---------------|----------------|
Bb :---*--8--*------|----------------|----------------|
Gb :--5--*--5--*5---|*---------------|----------------|
Db :----0--*--0---0-|5-5-5-5-5-5-5-5-|5-5-5-5-5-5-5-5-|
Ab :----------------|5-5-5-5-5-5-5-5-|5-5-5-5-5-5-5-5-|
Db :----------------|5-5-5-5-5-5-5-5-|5-5-5-5-5-5-5-5-|
                       P.M-----------------------|


Chorus 3 LEAD

Eb :------------------|
Bb :------------------|
Gb :7-----7-7-/9----9-|
Db :*-----------------|
Ab :*-----------------|
Db :*-----------------|

Eb :-----------------------|-------------------|--------------------|
Bb :------------13----*----|-------------------|---------13----x----|
Gb :9-/10----10--*---10-\9-|--9-/10------------|------10--*---10-10-|
Db :-----------------------|-------------------|--------------------|
Ab :-----------------------|-------------------|--------------------|
Db :-----------------------|-------------------|--------------------|

Eb :--------------------|------------------|--------------------|
Bb :--------------------|------------------|--------------------|
Gb :--10-/12------------|----10---9---10---|14---12---10---12---|
Db :--------------------|------------------|--------------------|
Ab :--------------------|------------------|--------------------|
Db :--------------------|------------------|--------------------|

Eb :------------------|-----------------|--------------------|
Bb :------------------|-----------------|---------13----x----|
Gb :15-------14-------|14---------------|------10--x---10-p9-|
Db :------------------|-----------------|--------------------|
Ab :------------------|-----------------|--------------------|
Db :------------------|-----------------|--------------------|

Eb :-------------------|--------------------|--------------------|
Bb :-------------------|---------13----x----|--------------------|
Gb :--9-/10------------|------10--x---10-10-|---10-/12-----------|
Db :-------------------|--------------------|--------------------|
Ab :-------------------|--------------------|--------------------|
Db :-------------------|--------------------|--------------------|

Eb :------------------|--------------------|------------------|
Bb :------------------|--------------------|------------------|
Gb :----10---9---10---|14---12---10---12---|15-------14-------|
Db :------------------|--------------------|------------------|
Ab :------------------|--------------------|------------------|
Db :------------------|--------------------|------------------|

Eb :-----------------|----------------|
Bb :-----------------|----------------|
Gb :14---------------|----------------|
Db :-----------------|----------------|
Ab :-----------------|----------------|
Db :-----------------|----------------|



Outro

Eb :----------------|----------------|-------------------|
Bb :----------------|----------------|-------------------|
Gb :----------------|----------------|-------------------|
Db :----------------|0---00*-00*-00*-|--000000-5*0*<2>--*|
Ab :----------------|0---00*-00*-00*-|--000000-5*0*------|
Db :----------------|0---00*-00*-00*-|--000000-5*0*------|
                         P.M----------------------|


Eb :----------------|
Bb :----------------|
Gb :----------------|
Db :0---00*-00*-00*-|
Ab :0---00*-00*-00*-|
Db :0---00*-00*-00*-|
       P.M----------|

Eb :----------------|----------------|---------------------------------|
Bb :----------------|----------------|---------------------------------|
Gb :----------------|----------------|---------------------------------|
Db :--00000000*-00*-|0---00*-00*-00*-|--000000-------------------------|
Ab :--00000000*-00*-|0---00*-00*-00*-|--000000-0-h8-h12-p8-p0-h7-h10-h7|
Db :--00000000*-00*-|0---00*-00*-00*-|--000000-*-----------------------|
      P.M-----------|   P.M-------------------|


END
Добавлено: 28.07.2013
Другие материалы по этой песне:
  • Аккорды и текст

Страница создана 28.07.2013
http://primanota.ru/modern-day-escape/city-of-thieves-chords.htm
Привет, Гость.
Предлагаем пройти революционный курс по гитаре.
Подарок от PrimaNota.Ru, забирай!