PrimaNota.ru - самый крупный в мире бесплатный архив песенных текстов, аккордов, табулатур и нот


Modern Chemistry - Never Scared - таба, видео

Регистрация Запомнить меня
Войти через:  Facebook Google Twitter Vk Yandex Mail.ru

Modern Chemistry - Never Scared - таба, видео

Печатать
Просмотров: 59
https://modernchemistry.bandcamp.com-------------------------------------------
                             Never Scared - Modern Chemistry
-------------------------------------------------------------------------------
Tabbed by:toxicrainbo
E-mail:toxicrainbo@aol.com

Tuning: standard 

e|----------------------------------7-------------4-------------3------------|
B|--4-4-4-4-4-4-4-4-4-4-4-4-4-4-4-4---4-4-4-4-4-4---4-4-4-4-4-4--4-4-4-4-4-4-|
G|---------------------------------------------------------------------------|
D|---------------------------------------------------------------------------|
A|---------------------------------------------------------------------------|
E|---------------------------------------------------------------------------|
Repeat as needed
e|----11-15p14h15-11---------------------------------------------------------|
B|-------------------12~-14~-------------------------------------------------|
G|---------------------------------------------------------------------------|
D|---------------------------------------------------------------------------|
A|---------------------------------------------------------------------------|
E|---------------------------------------------------------------------------|
Repeat twice

************************************

| /   slide up
| \   slide down
| h   hammer-on
| p   pull-off
| ~   vibrato
| +   harmonic
| x   Mute note
| b   Bend
| pb  Pre-bend
| br  Bend release
| pbr Pre-bend release
| brb Bend release bend

************************************
Добавлено: 20.05.2016
Другие материалы по этой песне:
  • Аккорды и текст

Страница создана 20.05.2016
http://primanota.ru/modern-chemistry/never-scared-chords.htm
Привет, Гость.
Предлагаем пройти революционный курс по гитаре.
Подарок от PrimaNota.Ru, забирай!