PrimaNota.ru - самый крупный в мире бесплатный архив песенных текстов, аккордов, табулатур и нот


Moderatto - Sentimettal - текст песни, таба, видео

Регистрация Запомнить меня
Войти через:  Facebook Google Twitter Vk Yandex Mail.ru

Moderatto - Sentimettal - текст песни, таба, видео

Печатать
Просмотров: 127
Tunnig:EADGBe
Intro
Guitarra 1
     A5         F#5          D5          E5
|-------------------------------------------------|
|--------------------------------------------9999-|
|--------------------------------------------9999-|
|----------------------------7-----------9---9999-|
|----7-----------4-----------5--555555---7-777777-|
|--0-5-555555-0--2-222222--0-----------0----------|
pm     ......      ......       ......     ..

Guitarra 2
|---------------------------------------------------------------------|
|-------0-------0-------0---------------------0---2---3---2---0-------|
|---2-------2-------2-------2---2-(x3)----2-----------------------2---|
|-2---2---2---2---2---2---2---2---------2---2---2---2---2---2---2---2-|
|---------------------------------------------------------------------|
|---------------------------------------------------------------------|

Coro entonces k me digas q no ...
Guitarra 1
A5 - F#5 - D5 - E5

Guitarra 2
  A                      F#m                 D                E7
|-9-9-9--9-9--9-9-10-9-----------------------------------------------|
|-101010-1010-101010-10-111111-1111-1111-97~-------------------------|
|-----------------------101010-1010-1010-97~--------------------7999-|
|-----(dieces no 0 y 1's)-------------------------------------9x9999-|
|--------------------------------------------455455455455455--7x-----|
|--------------------------------------------------------------------|

Verso 1
no quiero escuchar ...
Las 2 guitarras
|--------------------------------------|
|--------------------------------------|
|--------------------------------------|
|-----7------------------7-------------|
|-4--45---7---2-2x2--4--45---7---2-22~-|
|-2--2----5---0-0x0--2--2----5---0-00~-|

Intermedio Cada cancion cada emocion ...
Guitarra |
  F#5     D5      A5      E5
|---------------------------------------|
|---------------------------------------|
|---------77777777--------99999999------|
|-44444444777777777777777799999999-(x2)-|
|-44444444555555557777777777777777------|
|-22222222--------55555555--------------|

Guitarra 2
  F#5         D5           A5          E5
|-17x17x17x17x17x17x171717x17x17x17x17x16x16x161616x-------|
|-19x19x19x19x19x19x191919x19x19x19x19x17x17x171717x-------|
|----------------------------------------------------------|
|----------------------------------------------------(x2)--|
|----------------------------------------------------------|
|----------------------------------------------------------|

Pre coro Uohohoh ...

|----------------------|
|----------------------|
|-------------7--------|
|-----5-------7---9-!--|
|-----5---455-5---7-!--|
|-033-3----------------|

Coro x2

Verso 1 Y ahora el metal...

Verso 2 Cuando calienta el sol y es ...

|---------------------------------------------------------|
|---------------------------------------------------------|
|---------------------------------------------------------|
|-----7---------------------2-----7---------------------2-|
|-4--45---7---2-------2-3-4---4--45---7---2-------2-3-4---|
|-2--2----5---0-2-3-4---------2--2----5---0-2-3-4---------|

Cada cancion cada emocion
hay unos requintos tiene aui los tengo, sólo escucha la canción para saber cuando tocarlos.

|----------------------------------------14-------------14-------------|
|-------------------------------------------17p14----------17p14-------|
|-16b18r16-14-16b18r16-14-16b18~---16b18----------16b18----------16b18-|
|----------------------------------------------------------------------|
|----------------------------------------------------------------------|
|----------------------------------------------------------------------|

Precoro

Corox2

Puente escuchando guns n' roses a los pistols y a las flans...
  F5     G5
|-----------------------------------------------------------------------|
|-----------------------------------------------------------------------|
|-----------------------------------------------------------------------|
|-3------5-------3------5------3-------5-------3-------5-------7--------|
|-3------5-------3------5------3-------5-------3-------5-------77777777-|
|-1------3-------1------3------1-------3-------1-------3-------55555555-|


coro
x2
Cuando empieza el coro nadie toca A5 sino hasta ante de pasar a F#5. Todo lo demás es igual.
luego despues del coro se vuelve a cantar "entonces q me digas q no"
pero nadie toca, va?

esta es una rola bastante chida, ya la toque con unos weyes y sin ensayarla nos salió 
chida, la nta está muy fácil y divertida, y muy buena para las viejas, se ponen intensas. 
wyes ay se la dejo, es muy muy chida esta rola.
Добавлено: 03.06.2012
Другие материалы по этой песне:

Страница создана 27.03.2012
http://primanota.ru/moderatto/sentimettal-chords.htm
Привет, Гость.
Предлагаем пройти революционный курс по гитаре.
Подарок от PrimaNota.Ru, забирай!