PrimaNota.ru - самый крупный в мире бесплатный архив песенных текстов, аккордов, табулатур и нот


Moderatto - Piensas - таба, видео

Регистрация Запомнить меня
Войти через:  Facebook Google Twitter Vk Yandex Mail.ru

Moderatto - Piensas - таба, видео

Печатать
Просмотров: 123
You might think – Weezer (Cars 2)
Intro:
E|--------------------------------------------------------------------------|
B|--------------------------------------------------------------------------|
G|--7-7-7-7-7-7-7-7---------------------------------------7-7-7-7-7-7-7-7---|
D|--7-7-7-7-7-7-7-7---5-5-5-5-5-5-5-5---7-7-7-7-7-7-7-7---7-7-7-7-7-7-7-7---|
A|--5-5-5-5-5-5-5-5---5-5-5-5-5-5-5-5---7-7-7-7-7-7-7-7---5-5-5-5-5-5-5-5---|
E|------------------0-3-3-3-3-3-3-3-3-0-5-5-5-5-5-5-5-5-0-------------------|
Pm  . . . . . . . .   . . . . . . . .   . . . . . . . .   . . . . . . . .

E|--------------------------------------------------------------------------|
B|--------------------------------------------------------------------------|
G|--7-7-7-7-7-7-7-7---------------------------------------------------------|
D|--7-7-7-7-7-7-7-7---5-5-5-5-5-5-5-5---7-7-7-7-7-7-7-7---------------------|
A|--5-5-5-5-5-5-5-5---5-5-5-5-5-5-5-5---7-7-7-7-7-7-7-7---------------------|
E|------------------0-3-3-3-3-3-3-3-3-0-5-5-5-5-5-5-5-5-0-------------------|
Pm  . . . . . . . .   . . . . . . . .   . . . . . . . .

E|--------------------------------------------------------------------------|
B|--------------------------------------------------------------------------|
G|------------------------------------7~------------------------------------|
D|--9-9-9-9-9-9-9-9-9-7-7-7-7-5-5-5-5-7~------------------------------------|
A|--9-9-9-9-9-9-9-9-9-7-7-7-7-5-5-5-5-5~------------------------------------|
E|--7-7-7-7-7-7-7-7-7-5-5-5-5-3-3-3-3---------------------------------------|
Pm  . . . . . . . . . . . . . . . . .

Verso:
X 2
e|--------------------------------------------------------------------------|
B|--------------------------------------------------------------------------|
G|--7-7-7-7-7-7-7-7---------------------------------------7-7-7-7-7-7-7-7---|
D|--7-7-7-7-7-7-7-7---5-5-5-5-5-5-5-5---7-7-7-7-7-7-7-7---7-7-7-7-7-7-7-7---|
A|--5-5-5-5-5-5-5-5---5-5-5-5-5-5-5-5---7-7-7-7-7-7-7-7---5-5-5-5-5-5-5-5---|
E|------------------0-3-3-3-3-3-3-3-3-0-5-5-5-5-5-5-5-5-0-------------------|
Pm  . . . . . . . .   . . . . . . . .   . . . . . . . .   . . . . . . . .

Pre Coro:
X 2
e|--------------------------------------------------------------------------|
B|--------------------------------------------------------------------------|
G|--------------------------------------------------------------------------|
D|--9-9-9-9-7-7-7-7-5-5-5-5-5-5-5-5-----------------------------------------|
A|--9-9-9-9-7-7-7-7-5-5-5-5-5-5-5-5-----------------------------------------|
E|--7-7-7-7-5-5-5-5-3-3-3-3-3-3-3-3-----------------------------------------|
Pm  . . . . . . . . . . . . . . . .

Coro:
E|-----------------------------------------------------------------------------|
B|-----------------------------------------------------------------------------|
G|--7-7-7-7-7-7-7-7------------------------------------------------------------|
D|--7-7-7-7-7-7-7-7---5-5-5-5-5-5-5-5---7-7-7-7-7-7-7-7---9-9-9-9-9-9-9-9------|
A|--5-5-5-5-5-5-5-5---5-5-5-5-5-5-5-5---5-7-7-7-7-7-7-7---9-9-9-9-9-9-9-9------|
E|------------------0-3-3-3-3-3-3-3-3-0-5-5-5-5-5-5-5-5-0-7-7-7-7-7-7-7-7-0----|
Pm  . . . . . . . .   . . . . . . . .   . . . . . . . .   . . . . . . . .

E|--------------------------------------------------------------------------|
B|--------------------------------------------------------------------------|
G|--7-7-7-7-7-7-7-7---------------------------------------------------------|
D|--7-7-7-7-7-7-7-7---5-5-5-5-5-5-5-5---7-7-7-7-7-7-7-7---------------------|
A|--5-5-5-5-5-5-5-5---5-5-5-5-5-5-5-5---7-7-7-7-7-7-7-7---------------------|
E|------------------0-3-3-3-3-3-3-3-3-0-5-5-5-5-5-5-5-5-0-------------------|
Pm  . . . . . . . .   . . . . . . . .   . . . . . . . .

Después del Coro
e|--------------------------------------------------------------------------|
B|--------------------------------------------------------------------------|
G|--------------------------------------------------------------------------|
D|--9-9-9-9-9-9-9-9-9-5-5-5-5-7-7-7-7---------------------------------------|
A|--9-9-9-9-9-9-9-9-9-5-5-5-5-7-7-7-7---------------------------------------|
E|--7-7-7-7-7-7-7-7-7-3-3-3-3-5-5-5-5---------------------------------------|
Pm  . . . . . . . . . . . . . . . . .

Verso 2:
X 2
E|--------------------------------------------------------------------------|
B|--------------------------------------------------------------------------|
G|--7-7-7-7-7-7-7-7---------------------------------------7-7-7-7-7-7-7-7---|
D|--7-7-7-7-7-7-7-7---5-5-5-5-5-5-5-5---7-7-7-7-7-7-7-7---7-7-7-7-7-7-7-7---|
A|--5-5-5-5-5-5-5-5---5-5-5-5-5-5-5-5---7-7-7-7-7-7-7-7---5-5-5-5-5-5-5-5---|
E|------------------0-3-3-3-3-3-3-3-3-0-5-5-5-5-5-5-5-5-0-------------------|
Pm  . . . . . . . .   . . . . . . . .   . . . . . . . .   . . . . . . . .

Pre Coro:
X 2
e|--------------------------------------------------------------------------|
B|--------------------------------------------------------------------------|
G|--------------------------------------------------------------------------|
D|--9-9-9-9-7-7-7-7-5-5-5-5-5-5-5-5-----------------------------------------|
A|--9-9-9-9-7-7-7-7-5-5-5-5-5-5-5-5-----------------------------------------|
E|--7-7-7-7-5-5-5-5-3-3-3-3-3-3-3-3-----------------------------------------|
Pm  . . . . . . . . . . . . . . . .

Coro:
E|--------------------------------------------------------------------------|
B|--------------------------------------------------------------------------|
G|--7-7-7-7-7-7-7-7---------------------------------------------------------|
D|--7-7-7-7-7-7-7-7---5-5-5-5-5-5-5-5---7-7-7-7-7-7-7-7---9-9-9-9-9-9-9-9---|
A|--5-5-5-5-5-5-5-5---5-5-5-5-5-5-5-5---5-7-7-7-7-7-7-7---9-9-9-9-9-9-9-9---|
E|------------------0-3-3-3-3-3-3-3-3-0-5-5-5-5-5-5-5-5-0-7-7-7-7-7-7-7-7-0-|
Pm  . . . . . . . .   . . . . . . . .   . . . . . . . .   . . . . . . . .

E|----------------------------------------------------------2~---2~---------|
B|----------------------------------------------------------3~---3~---------|
G|--7-7-7-7-7-7-7-7-----------------------------------------2~---4~---------|
D|--7-7-7-7-7-7-7-7---5-5-5-5-5-5-5-5---7-7-7-7-7-7-7-7-----0~---4~---------|
A|--5-5-5-5-5-5-5-5---5-5-5-5-5-5-5-5---7-7-7-7-7-7-7-7-----0~---2~---------|
E|------------------0-3-3-3-3-3-3-3-3-0-5-5-5-5-5-5-5-5-0---x----x----------|
Pm  . . . . . . . .   . . . . . . . .   . . . . . . . .


E|--------3--0--2---3--0--2---3--0--2---3--0--------------------------------|
B|--------3--2--3---3--2--3---3--2--3---3--2--------------------------------|
G|--------0--2--4---0--2--4---0--2--4---0--2---------7----------------------|
D|--------0—-2--4---0--2--4---0--2--4---0--2---5--7--7----------------------|
A|--------2--0--2---2--0--2---2--0--2---2--0---5—-7--5----------------------|
E|--------3--x—-x---3--x--x---3--x--x---3--x---3--5-------------------------|
Let ring  ~~~~~~~~~~~~~~~~~~~~~~~~~~~~~~~~~~
          G  A  B   G  A  B   G  A  B   G  A








Solo:

E|--------------------------------------------------------------------------|
B|--------------------------------------------------------------------------|
G|--7-7-7-7-7-7-7-7---------------------------------------7-7-7-7-7-7-7-7---|
D|--7-7-7-7-7-7-7-7---5-5-5-5-5-5-5-5---7-7-7-7-7-7-7-7---7-7-7-7-7-7-7-7---|
A|--5-5-5-5-5-5-5-5---5-5-5-5-5-5-5-5---7-7-7-7-7-7-7-7---5-5-5-5-5-5-5-5---|
E|------------------0-3-3-3-3-3-3-3-3-0-5-5-5-5-5-5-5-5-0-------------------|
Pm  . . . . . . . .   . . . . . . . .   . . . . . . . .   . . . . . . . .

E|--------------------------------------------------------------------------|
B|--------------------------------------------------------------------------|
G|--7-7-7-7-7-7-7-7---------------------------------------------------------|
D|--7-7-7-7-7-7-7-7---5-5-5-5-5-5-5-5---7-7-7-7-7-7-7-7---9-9-9-9-9-9-9-9---|
A|--5-5-5-5-5-5-5-5---5-5-5-5-5-5-5-5---5-7-7-7-7-7-7-7---9-9-9-9-9-9-9-9---|
E|------------------0-3-3-3-3-3-3-3-3-0-5-5-5-5-5-5-5-5-0-7-7-7-7-7-7-7-7-0-|
Pm  . . . . . . . .   . . . . . . . .   . . . . . . . .   . . . . . . . .

E|--------------------------------------------------------------------------|
B|--------------------------------------------------------------------------|
G|-------------------7-7-7-7-7-7-7-7----------------------------------------|
D|--5-5-5-5-7-7-7-7--7-7-7-7-7-7-7-7----------------------------------------|
A|--5-5-5-5-7-7-7-7--5-5-5-5-5-5-5-5----------------------------------------|
E|--3-3-3-3-5-5-5-5---------------------------------------------------------|
Pm  . . . . . . . .  . . . . . . . .

Verso 3:
X 2
E|--------------------------------------------------------------------------|
B|--------------------------------------------------------------------------|
G|--7-7-7-7-7-7-7-7---------------------------------------7-7-7-7-7-7-7-7---|
D|--7-7-7-7-7-7-7-7---5-5-5-5-5-5-5-5---7-7-7-7-7-7-7-7---7-7-7-7-7-7-7-7---|
A|--5-5-5-5-5-5-5-5---5-5-5-5-5-5-5-5---7-7-7-7-7-7-7-7---5-5-5-5-5-5-5-5---|
E|------------------0-3-3-3-3-3-3-3-3-0-5-5-5-5-5-5-5-5-0-------------------|
Pm  . . . . . . . .   . . . . . . . .   . . . . . . . .   . . . . . . . .

Pre Coro:
X 2
e|--------------------------------------------------------------------------|
B|--------------------------------------------------------------------------|
G|--------------------------------------------------------------------------|
D|--9-9-9-9-7-7-7-7-5-5-5-5-5-5-5-5-----------------------------------------|
A|--9-9-9-9-7-7-7-7-5-5-5-5-5-5-5-5-----------------------------------------|
E|--7-7-7-7-5-5-5-5-3-3-3-3-3-3-3-3-----------------------------------------|
Pm  . . . . . . . . . . . . . . . .

Coro:
E|--------------------------------------------------------------------------|
B|--------------------------------------------------------------------------|
G|--7-7-7-7-7-7-7-7---------------------------------------------------------|
D|--7-7-7-7-7-7-7-7---5-5-5-5-5-5-5-5---7-7-7-7-7-7-7-7---9-9-9-9-9-9-9-9---|
A|--5-5-5-5-5-5-5-5---5-5-5-5-5-5-5-5---5-7-7-7-7-7-7-7---9-9-9-9-9-9-9-9---|
E|------------------0-3-3-3-3-3-3-3-3-0-5-5-5-5-5-5-5-5-0-7-7-7-7-7-7-7-7-0-|
Pm  . . . . . . . .   . . . . . . . .   . . . . . . . .   . . . . . . . .

E|--------------------------------------------------------------------------|
B|--------------------------------------------------------------------------|
G|--7-7-7-7-7-7-7-7---------------------------------------------------------|
D|--7-7-7-7-7-7-7-7---5-5-5-5-5-5-5-5---7-7-7-7-7-7-7-7---------------------|
A|--5-5-5-5-5-5-5-5---5-5-5-5-5-5-5-5---7-7-7-7-7-7-7-7---------------------|
E|------------------0-3-3-3-3-3-3-3-3-0-5-5-5-5-5-5-5-5-0-------------------|
Pm  . . . . . . . .   . . . . . . . .   . . . . . . . .

Fin
E|-------------------------------------------------------------------------|
B|-------------------------------------------------------------------------|
G|--------------------------------------------------------------------7~---|
D|--9-9-9-9-9-9-9-9-9-7-7-7-7-5-5-5-5--9-9-9-9-9-9-9-5-5-5-5-5-5-5-5—-7~---|
A|--9-9-9-9-9-9-9-9-9-7-7-7-7-5-5-5-5--9-9-9-9-9-9-9-5-5-5-5-5-5-5-5—-5~---|
E|--7-7-7-7-7-7-7-7-7-5-5-5-5-3-3-3-3--7-7-7-7-7-7-7-3-3-3-3-5-5-5-5-------|
Pm  . . . . . . . . . . . . . . . . .  . . . . . . . . . . . . . . .
Добавлено: 24.07.2012
Другие материалы по этой песне:
  • Аккорды и текст

Страница создана 24.07.2012
http://primanota.ru/moderatto/piensas-chords.htm
Привет, Гость.
Предлагаем пройти революционный курс по гитаре.
Подарок от PrimaNota.Ru, забирай!