PrimaNota.ru - самый крупный в мире бесплатный архив песенных текстов, аккордов, табулатур и нот


Moby - Say It'S All Mine - аккорды и текст, видео

Регистрация Запомнить меня
Войти через:  Facebook Google Twitter Vk Yandex Mail.ru

Moby - Say It'S All Mine - аккорды и текст, видео

Печатать
Просмотров: 152
Say It'S All Mine
Moby
Chorus:
 
G-------------------------------------------------
D----------------------0-0-2-2--2--2--2-2--2-2-2-2
A-------------------------------------------------
E-2--2--2--2-2--2-2-2-----------------------------

Verse:

G---------------------------------
D---------------------------------
A---------------------------------
E-2-2--2-2--2-2--2-2--2-2-2-2-----

G---------------------------------
D---------------------------------
A---------------------------------
E--0-0--0-0--0-0--0-0--0-0-0-0----

G---------------------------------
D---------------------------------
A---------------------------------
E-2-2--2-2--2-2--2-2--2-3-2-0-----

G---------------------------------
D---------------------------------
A---------------------------------
E-0-0--0-0--0-0--0-0--0-0-0-0-----

G---------------------------------
D---------------------------------
A-2-2--2-2--2-2--2-2--2-2-2-2-----
E---------------------------------

G---------------------------------
D---------------------------------
A-5-5--5-5--5-5--5-5--5-7-5-2-----
E---------------------------------

G---------------------------------
D---------------------------------
A-2-2--2-2--2-2--2-2--2-2-2-2-----
E---------------------------------

G---------------------------------
D---------------------------------
A-5-5--5-5--5-5--5-5-5-5----------
E---------------------------------

Bridge

G---------------------------------
D-2-2-0-0--0--0--0-0--0-0-0-2-----
A---------------------------------
E---------------------------------

G---------------------------------
D-2--2--2--2-2--2-4-2-0-----------
A---------------------------------
E---------------------------------

G---------------------------------
D-0--0--0--0-0--0-0-0-0-----------
A---------------------------------
E---------------------------------

G---------------------------------
D---------------------------------
A-2--2--2--2-2--2-2-2-5-----------
E---------------------------------

G---------------------------------
D---------------------------------
A-5--5--5--5-5--5-7-5-2-----------
E---------------------------------

G---------------------------------
D---------------------------------
A-2--2--2--2-2-2---5---5---2-2-0-0
E---------------------------------
Добавлено: 06.09.2013
Другие материалы по этой песне:
  • Аккорды и текст

Страница создана 16.04.2012
http://primanota.ru/moby/say-its-all-mine-chords.htm
Привет, Гость.
Предлагаем пройти революционный курс по гитаре.
Подарок от PrimaNota.Ru, забирай!