PrimaNota.ru - самый крупный в мире бесплатный архив песенных текстов, аккордов, табулатур и нот


Moby - Guitar Flute And String - аккорды и текст, таба, видео

Регистрация Запомнить меня
Войти через:  Facebook Google Twitter Vk Yandex Mail.ru

Moby - Guitar Flute And String - аккорды и текст, таба, видео

Печатать
Просмотров: 186
Авторы музыки: Moby
Авторы текста: Moby
Guitar Flute And String
Moby
Em D Dm Am
E||-----------------------|
B||-----------------1-----|
G||--0---2----2-----2-----|
D||--1---0----0-----2-----|
A||--1---0----0-----0-----|
E||--0---2----1-----------|


The picking pattern for each chord goes like this pretty much throughout at 240
bpm

e.g. Em
E||-----------------------|----------------------|----------------------|
B||-----------------------|----------------------|----------------------|
G||-----------------------|--0-------------------|-----------------0----|
D||--------2--------------|-------2--------------|--2-------------------|
A||-------------2---------|------------2---------|-------2--------------|
E||---0--------------0----|-----------------0----|------------0---------|


----------------------|
----------------------|
-----------------0----|
--2-------------------|
-------2--------------|
------------0---------|

The only slight variation I noticed was the Am chord which is played with a
similar pattern but with
a hammer on at the B string (done in a different place in each repeat see full
tab below).

The chord progression goes like this:

Em D (repeat 3 times)

Dm Em (rest bar 3 & 4)


Em D (repeat once)

Dm Em


Am D (repeat twice)

Am Dm


Em D (repeat twice)

Dm Em (rest bar 3 & 4)



Here's the full tab:

Em
E||-----------------------|----------------------|----------------------|
B||-----------------------|----------------------|----------------------|
G||----------------------|--0-------------------|-----------------0----|
D||-------2--------------|-------2--------------|--2-------------------|
A||-------------2---------|------------2---------|-------2--------------|
E||---0--------------0----|-----------------0----|------------0---------|


D (2002xx)
----------------------|----------------------|----------------------|
----------------------|----------------------|----------------------|
-----------------0----|----------------------|--2-------------------|
--2-------------------|-------0--------------|-------0--------------|
-------2--------------|------------0---------|------------0---------|
------------0---------|--2--------------2----|-----------------2----|


3x Dm (1002xx)
----------------------|-----------------------||----------------------|
----------------------|-----------------------||----------------------|
-----------------2----|-----------------2----||----------------------|
--0-------------------|--0-------------------||-------0--------------|
-------0--------------|-------0---------------||------------0---------|
------------2---------|------------2----------||--1--------------1----|



----------------------|----------------------|----------------------|
----------------------|----------------------|----------------------|
--2-------------------|-----------------2----|-----------------2----|
-------0--------------|--0-------------------|--0-------------------|
------------0---------|-------0--------------|-------0--------------|
-----------------1----|------------1---------|------------1---------|


Em
----------------------|----------------------|------------------|
----------------------|----------------------|------------------|
----------------------|--0-------------------|------------------|
-------2--------------|-------2--------------|------------------|
------------2---------|------------2---------|------------------|
--0--------------0----|-----------------0----|------------------|


Em
------------------||-----------------------|----------------------|
------------------||-----------------------|----------------------|
------------------||----------------------|--0-------------------|
------------------||-------2--------------|-------2--------------|
------------------||-------------2---------|------------2---------|
------------------||---0--------------0----|-----------------0----|


D
----------------------|----------------------|----------------------|
----------------------|----------------------|----------------------|
-----------------0----|-----------------0----|----------------------|
--2-------------------|--2-------------------|-------0--------------|
-------2--------------|-------2--------------|------------0---------|
------------0---------|------------0---------|--2--------------2----|



----------------------|----------------------|-----------------------||
----------------------|----------------------|-----------------------||
--2-------------------|-----------------2----|-----------------2----||
-------0--------------|--0-------------------|--0-------------------||
------------0---------|-------0--------------|-------0---------------||
-----------------2----|------------2---------|------------2----------||


Dm
----------------------|----------------------|----------------------|
----------------------|----------------------|----------------------|
----------------------|--2-------------------|-----------------2----|
-------0--------------|-------0--------------|--0-------------------|
------------0---------|------------0---------|-------0--------------|
--1--------------1----|-----------------1----|------------1---------|


Em
----------------------|----------------------|----------------------|
----------------------|----------------------|----------------------|
-----------------2----|----------------------|--0-------------------|
--0-------------------|-------2--------------|-------2--------------|
-------0--------------|------------2---------|------------2---------|
------------1---------|--0--------------0----|-----------------0----|


Am (x0221x)
----------------------|----------------------|----------------------|
----------------------|----------------------|----------------------|
-----------------0----|-----------------0----|-------2--------------|
--2-------------------|--2-------------------|------------2---------|
-------2--------------|-------2--------------|--0--------------0----|
------------0---------|------------0---------|----------------------|



----------------------|----------------------|----------------------|
--0---h1--------------|-----------------0----|-----------------0----|
----------------------|--2-------------------|--2-------------------|
------------2---------|-------2--------------|-------2--------------|
-----------------0----|------------0---------|------------0---------|
----------------------|----------------------|----------------------|


D
----------------------|----------------------|----------------------|
----------------------|----------------------|----------------------|
----------------------|--2-------------------|-----------------2----|
-------0--------------|-------0--------------|--0-------------------|
------------0---------|------------0---------|-------0--------------|
--2--------------2----|-----------------2----|------------2---------|


Am
----------------------|----------------------|----------------------|
----------------------|----------------------|--0-------------------|
-----------------2----|-------2--------------|-------2--------------|
--0-------------------|------------2---------|------------2---------|
-------0--------------|--0--------------0----|-----------------0----|
------------2---------|----------------------|----------------------|


D
----------------------|----------------------|----------------------|
--0---h1--------------|----------------------|----------------------|
------------2---------|-------2--------------|----------------------|
-----------------2----|------------2---------|-------0--------------|
----------------------|--0--------------0----|------------0---------|
----------------------|----------------------|--2--------------2----|



----------------------|----------------------|----------------------|
----------------------|----------------------|----------------------|
--2-------------------|-----------------2----|-----------------2----|
-------0--------------|--0-------------------|--0-------------------|
------------0---------|-------0--------------|-------0--------------|
-----------------2----|------------2---------|------------2---------|


Am
----------------------|----------------------|----------------------|
----------------------|--0-------------------|----------------------|
-------2--------------|-------2--------------|--2-------------------|
------------2---------|------------2---------|-------2---------2----|
--0--------------0----|-----------------0----|------------0---------|
----------------------|----------------------|----------------------|


D
----------------------|----------------------|----------------------|
--0---h1--------------|----------------------|----------------------|
-----------------2----|----------------------|--2-------------------|
----------------------|-------0--------------|-------0--------------|
------------0---------|------------0---------|------------0---------|
----------------------|--2--------------2----|-----------------2----|


Am
----------------------|----------------------|----------------------|
----------------------|----------------------|----------------------|
-----------------2----|-----------------2----|-------2--------------|
--0-------------------|--0-------------------|------------2---------|
-------0--------------|-------0--------------|--0--------------0----|
------------2---------|------------2---------|----------------------|



----------------------|----------------------|----------------------|
--0---h1--------------|-----------------0----|-----------------0----|
----------------------|--2-------------------|--2-------------------|
------------2---------|-------2--------------|-------2--------------|
-----------------0----|------------0---------|------------0---------|
----------------------|----------------------|----------------------|


Dm
----------------------|----------------------|----------------------|
----------------------|----------------------|----------------------|
----------------------|--2-------------------|-----------------2----|
-------0--------------|-------0--------------|--0-------------------|
------------0---------|------------0---------|-------0--------------|
--1--------------1----|-----------------1----|------------1---------|


Em
----------------------||-----------------------|----------------------|
----------------------||-----------------------|----------------------|
-----------------2----||----------------------|--0-------------------|
--0-------------------||-------2--------------|-------2--------------|
-------0--------------||-------------2---------|------------2---------|
------------1---------||---0--------------0----|-----------------0----|


D
----------------------|----------------------|----------------------|
----------------------|----------------------|----------------------|
-----------------0----|-----------------0----|----------------------|
--2-------------------|--2-------------------|-------0--------------|
-------2--------------|-------2--------------|------------0---------|
------------0---------|------------0---------|--2--------------2----|


2x
----------------------|----------------------|-----------------------||
----------------------|----------------------|-----------------------||
--2-------------------|-----------------2----|-----------------2----||
-------0--------------|--0-------------------|--0-------------------||
------------0---------|-------0--------------|-------0---------------||
-----------------2----|------------2---------|------------2----------||


Dm
----------------------|----------------------|----------------------|
----------------------|----------------------|----------------------|
----------------------|--2-------------------|-----------------2----|
-------0--------------|-------0--------------|--0-------------------|
------------0---------|------------0---------|-------0--------------|
--1--------------1----|-----------------1----|------------1---------|


Em
----------------------|----------------------|----------------------|
----------------------|----------------------|----------------------|
-----------------2----|----------------------|--0-------------------|
--0-------------------|-------2--------------|-------2--------------|
-------0--------------|------------2---------|------------2---------|
------------1---------|--0--------------0----|-----------------0----|
Добавлено: 05.10.2013
Другие материалы по этой песне:
  • Аккорды и текст

Страница создана 08.07.2012
http://primanota.ru/moby/guitar-flute-and-string-chords.htm
Привет, Гость.
Предлагаем пройти революционный курс по гитаре.
Подарок от PrimaNota.Ru, забирай!