PrimaNota.ru - самый крупный в мире бесплатный архив песенных текстов, аккордов, табулатур и нот


Moby - Electricity - бас-таба, видео

Регистрация Запомнить меня
Войти через:  Facebook Google Twitter Vk Yandex Mail.ru

Moby - Electricity - бас-таба, видео

Печатать
Просмотров: 46
Авторы музыки: Moby, Richard Melville Hall

Song: Electricity
Artist: Moby
Album: Moby
Year: 1992
Tabber: beranger80@hotmail.com



Riff A (0:00)

g---------------|
d---------------|
a----5----------|
e--0---6-5-6-5--|



Riff B (0:15) (Riff A continues)

g-----------------------|-----------------------|-----------------------|
d--14--14--0-13-13--12--|---12-12-12-12--12-12--|--14--14--0-13-13--12--|
a-----------------------|-----------------------|-----------------------|
e-----------------------|-----------------------|-----------------------|
                      x4                      x4                      x4



0:38 Riff A 



Riff B1 (1:03)            Riff B2 (Played 3 times at 1:03)

g------------------|  g-----------------------------------|
d------------------|  d--3////////////15\\\\\\\\\\\\\\\3--|
a------------------|  a-----------------------------------|
e--1-0--0--0-0--0--|  e-----------------------------------|



Riff C (1:18) (Riff B continues)

g-------------------------------|
d--12-12-14-----12-12-14-15-14--|
a-------------------------------|
e-------------------------------|



1:33 Break

1:40 Riff A

2:13 Riffs B1 and B2

2:35 Riffs B1 + C

3:20 Break

3:27 End
Добавлено: 12.05.2016
Другие материалы по этой песне:
  • Аккорды и текст

Страница создана 12.05.2016
http://primanota.ru/moby/electricity-chords.htm
Привет, Гость.
Предлагаем пройти революционный курс по гитаре.
Подарок от PrimaNota.Ru, забирай!