PrimaNota.ru - самый крупный в мире бесплатный архив песенных текстов, аккордов, табулатур и нот


Mobile - New York Minute - текст песни, бас-таба, видео

Регистрация Запомнить меня
Войти через:  Facebook Google Twitter Vk Yandex Mail.ru

Mobile - New York Minute - текст песни, бас-таба, видео

Печатать
Просмотров: 205
-------------------------------------------------------------------------------
			     New York Minute - Mobile
-------------------------------------------------------------------------------

Tabbed By : Yanusun
e-mail: kylemk@jedcor.com

Tuning: Standard

Bass has solo intro with really quick triplets. Experiment with this part because I'm 
sure I did it right. P.S. 1 before a 0 means 10.

G|--------------------------------------------------------|
D|--------------------------------------------------------|
A|--------------333-333-333353--------------333-333-333353|
E|444-444-444434--------------444-444-444434--------------|

Much slower from here on

G|--------------------------------|
D|--------------------------------|  x3
A|-------3-3-3-353-------3-3-3-353|
E|4-4-434---------4-4-434---------|

G|--------------------------------|
D|-----------------------1~-------|
A|-------3-3-3-353----------------|
E|4-4-434---------4-4-434---------|

G|--0-575-------------8108--------|
D|-------6~---------8-----8~------| x2 (You can add in some triplets of the 6
A|----------------6---------------|       and 8 instead of holding them)
E|8-------------------------------|

G|111111111111111100000-5~--------|
D|--------------------------------|
A|---------------------3----------|
E|--------------------------------|

Repeat this^ whole section again, then break. Back in at 2:15 with this part.

G|----131---5-30------010-------------131---5-30------010--------------------|
D|--1---------------0---------------1---------------0------------------------|
A|-------1---------------3--3536---------1---------------33333333133333133---|
E|4---------------3---------------4---------------3--------------------------|

G|--0-575-------------8108--------|
D|-------6~---------8-----8~------| x3
A|----------------6---------------|
E|8-------------------------------|

G|311111011111110-133333333333335-3111118----------------33333310|
D|---------------------------------------------------------------|
A|---------------------------------------1111111---111111--------|
E|----------------------------------------------4-4--------------|

G|1111111111111111------5~---------------------------------------|
D|----------------00000------------------------------------------|
A|---------------------3-----------------------------------------|
E|---------------------------------------------------------------|

| /  slide up
| \  slide down
| h  hammer-on
| p  pull-off
| ~  vibrato
| +  harmonic
| x  Mute note
===============================================================================
Добавлено: 31.03.2012
Другие материалы по этой песне:

Страница создана 29.03.2012
http://primanota.ru/mobile/new-york-minute-chords.htm
Привет, Гость.
Предлагаем пройти революционный курс по гитаре.
Подарок от PrimaNota.Ru, забирай!