PrimaNota.ru - самый крупный в мире бесплатный архив песенных текстов, аккордов, табулатур и нот


Mndsgn - Camelblues - аккорды и текст, видео

Регистрация Запомнить меня
Войти через:  Facebook Google Twitter Vk Yandex Mail.ru

Mndsgn - Camelblues - аккорды и текст, видео

Печатать
Просмотров: 110
Camelblues
Mndsgn
MNDSGN (Pronounced Mind Design) - Camelblues
From the album Yawn Zen

| 1 + 2 + 3 + 4 + | 1 + 2 + 3 + 4 + | 1 + 2 + 3 + 4 + | 1 + 2 + 3 + 4 + |
| C7M             | F7M             |D#dim            |Bm7      Bb/B    | For the whole song



C7M  

                             F7M  
I could see the look on your face
           D#dim
You went by me
            Bm7
There's no hiding
    Bb/B           C7M  
The way that you feel

                     F7M  
There's no need to explain
                  D#dim
The truth is so plain
             Bm7
I'm just expressing
    Bb/B         C7M  
The way that I feel

                          F7M  
I could see your hair sit still
               D#dim
Just doesn't feel
                  Bm7
The way it's supposed to
Bb/B       C7M  
I feel so bad

                              F7M  
You know we can always change scenes
         D#dim
By any means
       Bm7
Don't hesitate
   Bb/B      C7M  
To let me know

         F7M  
Let me know
      D#dim
Let me know
             Bm7
If you wanna go
   Bb/B
Or we could stay


Fig. 1


Fig. 2 x2
                           F7M  
If you wanna change up the scene now
                        D#dim
We can go and do that together
                             Bm7
Just know I won't ever leave your side
  Bb/B
Because I love you so...

Fig. 1
e|--------------------------------------------------------------------------|
B|--------------------------------------------------------------------------|
G|------7h9-7---7-----------7h9-7------------7h9-7-----7----7-7h9-----7-----|
D|----7-------9----------7-9------7-9--------------9-7------------9-7-------|
A|---------------------7-------------------9--------------------------------|
E|--------------------------------------------------------------------------|


Fig. 2
e|--------12-------------------------------------------------------|
B|-----12----12-11-10-----8-10-------------------------------------|
G|---------------------9-------------------------------------------|
D|-----------------------------------------------------------------|
A|-----------------------------------------------------------------|
E|-----------------------------------------------------------------| x3

e|--------12-------------------------------------------------------|
B|-----12----12-11-10~~~-------------------------------------------|
G|-----------------------------------------------------------------|
D|-----------------------------------------------------------------|
A|-----------------------------------------------------------------|
E|-----------------------------------------------------------------| x1
Добавлено: 25.04.2016
Другие материалы по этой песне:
  • Аккорды и текст

Страница создана 25.04.2016
http://primanota.ru/mndsgn/camelblues-chords.htm
Привет, Гость.
Предлагаем пройти революционный курс по гитаре.
Подарок от PrimaNota.Ru, забирай!