PrimaNota.ru - самый крупный в мире бесплатный архив песенных текстов, аккордов, табулатур и нот


Mitchell Grey - Coyoter - таба, видео

Регистрация Запомнить меня
Войти через:  Facebook Google Twitter Vk Yandex Mail.ru

Mitchell Grey - Coyoter - таба, видео

Печатать
Просмотров: 85
Link to the version I tabbed youtube(dot)com/watch?v=7rzD6hiFYYA

Official website of Mitchell Grey http://www.mitchellgreymusic.com/

Capo 2nd fret


INTRO,VERSE 1 and OUTRO


Ascend along with our satellite...


e|-------------------------------|
B|---0-------2--------1----------|
G|-----6-------2--------2--------|
D|-------4-------0--------0------|
A|-------------------------------|
E|-------------------------------|
        x4         x2      x2

  
CHORUS


Howlin out I've been Coyoter...

e|--0----0----0------------------|
B|--0----0----0------------------|
G|--7----2----1------------------|
D|--7----2----2------------------|
A|--5----0----2------------------|
E|--x----x----0------------------|

    x4   X2   X2


VERSE 2 


The air out here keeps me in motion, its flowin...


e|-------------------------------|
B|---0-------2--------1----------|
G|-----6-------2--------2--------|
D|-------4-------0--------0------|
A|-------------------------------|
E|-------------------------------|
     x4         x2      x2

Nocturnal chaos only... (palm mute)

e|---0--------0----|
B|---0--------0----|
G|---2--------1----|
D|---2--------2----|
A|---X--------2----|
E|---2--------0----|

     X16       X16


CHORUS X2

OUTRO

We're all animals in suits and dresses...






***************************************************************

NO COPYRIGHT INTENDED, ALL THE RIGHTS GOES TO MITCHELL GREY
Song on the record "On The Stellar Way"

Feel free to add corrections if there's any mistakes... Enjoy!
Добавлено: 14.10.2013
Вам также может быть интересно:
Другие материалы по этой песне:
  • Аккорды и текст

Страница создана 14.10.2013
http://primanota.ru/mitchell-grey/coyoter-chords.htm
Привет, Гость.
Предлагаем пройти революционный курс по гитаре.
Подарок от PrimaNota.Ru, забирай!