PrimaNota.ru - самый крупный в мире бесплатный архив песенных текстов, аккордов, табулатур и нот


Mister Mouse - Study In C Hungarian Minor - таба, видео

Регистрация Запомнить меня
Войти через:  Facebook Google Twitter Vk Yandex Mail.ru

Mister Mouse - Study In C Hungarian Minor - таба, видео

Печатать
Просмотров: 56
Song: Study In C Hungarian Minor
Artist: Mister Mouse
Transcriber: Sifu EV (I declare that the file is all my own work)
Timing: roughly 3/4 to 4/4 (with variations within each bar)
Performace guide: play legato, with clean electric guitar with slight
chorus,
or overdriven guitar with mega sustain, you might wanna lenghten all last
notes of each bar: I don't mind if you do :)
copyright: Mister Mouse
(http://members.home.nl/mistermouse/docs/TAB-StudyInCHungarianMinor.txt)

B ---h-p------4~~--|-7--6-----4~~--|--h-p------6~~--|--4-----4--6~~--|
G -4^5^4--7--------|-------7--------|-4^5^4--7-------|-----7------------|
                                    .  .
e --.--.--.------------|-7-4-.-------------|
B -7-6-4-------------|-----7-6--4-------|
G -------7--5--4~~--|-------------7~~--|

B --h--p------4~~--|-7--6-----4~~--|--h-p------6~~--|--4-----4--6~~--|
G -4^5^4--7--------|-------7--------|-4^5^4--7-------|-----7------------|


e --.--.-.-------------|--------|
B -7-6-4-------------|--s-----|
G -------7--5--4~~--|-4/5~~-|

notes:
  h
4^5 hammer on from 4 to 5 (no repick)
  p
5^4 pull off from 5 to 4 (no repick)
4~~ add vibrato to tone (with lefthand finger)
 .
7 played staccatto
  s
4/5 slide from 4 to 5 (no repick)



     
Добавлено: 25.07.2013
Другие материалы по этой песне:
  • Аккорды и текст

Страница создана 25.07.2013
http://primanota.ru/mister-mouse/study-in-c-hungarian-minor-chords.htm
Привет, Гость.
Предлагаем пройти революционный курс по гитаре.
Подарок от PrimaNota.Ru, забирай!