PrimaNota.ru - самый крупный в мире бесплатный архив песенных текстов, аккордов, табулатур и нот


Mission - Severina - аккорды и текст, таба, видео

Регистрация Запомнить меня
Войти через:  Facebook Google Twitter Vk Yandex Mail.ru

Mission - Severina - аккорды и текст, таба, видео

Печатать
Просмотров: 167
Severina
Mission
		   *****************************
                        *                           *
                        *   T h e   M i s s i o n   *
                        *                           *
                        *     "S E V E R I N A"     *
                        *                           *
                        *****************************

 Finally I've manged to find some time to write down
 what I am still playing for a while. I hope I manged
 it to remember me right.
 G here is the first one, others to follow if I will
 find enough time.

 Comments, Correction, other Mission stuff are welcome
 Lauer Johannes, jolau@stud.uni-sb.de

 Used chords:
 ------------

 Explanation:

 *      do not pla the strings marked with a star
 >      downstroke
        upstroke

 the numbers in () like EM(1) and EM(5) to make
 a difference between different chords.


   EM(1)            F#7sus4          Dsus4
   1.               1.               1.
 e|--|--|--|--|   e|--|--|--|--|   e|--|xx|--|--|
 B|--|--|--|--|   B|--|--|--|--|   B|--|--|xx|--|
 G|--|--|--|--|   G|--|--|xx|--|   G|--|--|--|--|
 D|--|xx|--|--|   D|--|--|--|xx|   D|--|--|--|xx|
 A|--|xx|--|--|  *A|--|--|--|--|  *A|--|--|--|--|
 E|--|--|--|--|  *E|--|--|--|--|  *E|--|--|--|--|

   Emsus4           Em(5)
   5.               5.
 e|xx|--|--|--|   e|--|--|xx|--|
 B|xx|--|--|--|   B|xx|--|--|--|
 G|--|--|--|--|  *G|--|--|--|--|
*D|--|--|--|--|  *D|--|--|--|--|
*A|--|--|--|--|  *A|--|--|--|--|
*E|--|--|--|--|  *E|--|--|--|--|

   Gsus4            Dsus4
   3.               3.
 e|xx|--|--|--|   e|--|--|xx|--|
 B|xx|--|--|--|   B|xx|--|--|--|
 G|--|--|--|--|   G|--|--|--|--|
 D|--|--|xx|--|   D|--|xx|--|--|
 A|--|--|xx|--|   A|--|--|xx|--|
*E|--|--|--|--|  *E|--|--|--|--|

   C(1)             C(2)
   1.               1.
 e|--|--|--|--|   e|--|--|xx|--|
 B|xx|--|--|--|   B|xx|--|--|--|
 G|--|--|--|--|   G|--|--|--|--|
 D|--|xx|--|--|   D|--|xx|--|--|
 A|--|--|xx|--|   A|--|--|xx|--|
*E|--|--|--|--|  *E|--|--|--|--|

   Em7              Emsus4(7)
   5.               7.
 e|--|--|--|--|   e|--|--|--|--|
 B|--|--|--|--|   B|--|--|--|--|
 G|--|--|xx|--|   G|--|--|xx|--|
 D|xx|--|--|--|   D|xx|--|--|--|
 A|--|--|xx|--|   A|--|--|xx|--|
 E|--|--|--|--|   E|--|--|--|--|

   Emsus4(9)        C7M  /13 (9)     C9/13
   9.               9.               9.
 e|--|--|--|--|   e|--|--|--|xx|   e|--|xx|--|--|
 B|--|--|--|--|   B|--|--|--|xx|   B|--|xx|--|--|
 G|--|--|xx|--|   G|xx|--|--|--|   G|xx|--|--|--|
 D|xx|--|--|--|   D|--|xx|--|--|   D|--|xx|--|--|
 A|--|xx|--|--|   A|--|--|--|--|   A|--|--|--|--|
 E|--|--|--|--|  *E|--|--|--|--|  *E|--|--|--|--|

   C6               C7M  /13 (10)
   10.              10.
*e|--|--|--|--|   e|--|--|xx|--|
 B|--|--|--|xx|   B|--|--|xx|--|
 G|--|--|xx|--|   G|--|--|xx|--|
 D|xx|--|--|--|   D|xx|--|--|--|
 A|--|--|--|--|   A|--|--|--|--|
*E|--|--|--|--|  *E|--|--|--|--|

Riff A:
--------

   F#7sus4                           Dsus4
e----------------------------------|-0h2p0----------------------------|
B----------------------------------|---------3------------------------|
G----------------------------------|-------------4--------------------|
D---------3-------4-------3--------|-----------------5----------------|
A-3-----------3---------------3----|-------------------------3--------|
E----------------------------------|----------------------------------|

Riff B:
-------

   Em
e----------------------------------|-2---0----------------------------|
B----------------------------------|---------3------------------------|
G----------------------------------|-------------4--------------------|
D-----------------4----------------|-----------------5----------------|
A--2------5---2-----------5---2----|-------------------------2--------|
E----------------------------------|----------------------------------|

Riff c:
-------

   F#7sus4
e--0-------------------------------|
B--0-------------------------------|
G--3-------------------------------|
D--4-------------------------------|
A----------------------------------|
E----------------------------------|

Rhythm A:
---------
                  Emsus4      Em
e-----------------5---5-------7----|
B-----------------5---5-------5----|
G-----------------0---0-------0----|
D----------------------------------|
A----------------------------------|
E----------------------------------|
                  >            
Rhythm B:
---------
                  Gsus4       Dsus4
e-----------------3---3-------5----|
B-----------------3---3-------3----|
G-----------------0---0-------0----|
D-----------------5---5-------4----|
A-----------------5---5-------5----|
E----------------------------------|
                  >            


   |---------------------------------------------------------------------|
   | Riff A                           | Riff B                           |
   |---------------------------------------------------------------------|
   | Riff A                           | Riff B                           |
   |---------------------------------------------------------------------|
   | Riff C                           | Rhythm A                         |
   |---------------------------------------------------------------------|
*1*|                                  | Rhythm A                         |
   | She's got her head in   the   clouds..                              |
   |---------------------------------------------------------------------|
   |                                  | Rhythm B                         |
   | she's got the stars in  her  eyes..                                 |
   |---------------------------------------------------------------------|
   |                                  | Rhythm B                         |
   | and she's dancing..                                                 |
   |---------------------------------------------------------------------|
   |                                  | Rhythm A                         |
   | with a dream in her heart..                                         |
   |---------------------------------------------------------------------|
   |                                  | Rhythm A                         |
   | she's got the wind in her hair..                                    |
   |---------------------------------------------------------------------|
   |                                  | Rhythm B                         |
   | moonchild shining bright                                            |
   |---------------------------------------------------------------------|
   |                                  | Rhythm B                         |
   | and she's dancing..                                                 |
   |---------------------------------------------------------------------|
   |                                  |                                  |
   |  with a dream in her heart       | Se     -      ve                 |
   |---------------------------------------------------------------------|
   |  C(1)                            | Dsus4                            |
   |  ri     -      na                | Se     -      ve                 |
   |---------------------------------------------------------------------|
   |  C(1)                            | Rhythm A                         |
   |  ri     -      na                |                                  |
   |---------------------------------------------------------------------|

    Go on at *1* with the second verse:

    Verse 2:

    She believes in angels
    she believes in the will of the gods
    and she's dancing,
    amongst the magic dust
    she believes in the midnight trance
    she believes in love is the law
    and she's dancing,
    amongst the magic dust.

   |---------------------------------------------------------------------|
   |                                  | Rhythm A                         |
   |  Star  child..                   |                                  |
   |---------------------------------------------------------------------|
   |                                  | Dsus4                            |
   |  baby born of heaven             | Se     -      ve                 |
   |---------------------------------------------------------------------|
   |  C(1)                            | C(1)                             |
   |  ri     -      na                | Se     -      ve                 |
   |---------------------------------------------------------------------|
   |  C(1)                            | C(1)                             |
   |  ri     -      na                |                                  |
   |---------------------------------------------------------------------|
   |  Em7                             | Em7                              |
   |---------------------------------------------------------------------|
   |  Emsus4(7)                       | Emsus4(7)                        |
   |---------------------------------------------------------------------|
   |  Emsus4(9)                       | Emsus4(9)                        |
   |---------------------------------------------------------------------|
   |  C7M  /13(9)   C9/13             | C6            C7M  /13           |
   |---------------------------------------------------------------------|
   |  Em7                             | Em7                              |
   |---------------------------------------------------------------------|
   |  Emsus4(7)                       | Emsus4(7)                        |
   |---------------------------------------------------------------------|
   |  Emsus4(9)                       | Emsus4(9)                        |
   |---------------------------------------------------------------------|
   |  C7M  /13(9)   C9/13             | C6            C7M  /13           |
   |---------------------------------------------------------------------|
   | Riff B                           | Riff A                           |
   |---------------------------------------------------------------------|
   | Riff B                           | Riff C                           |
   |---------------------------------------------------------------------|
   | Riff A                           |
   |----------------------------------|

    Go on at *1* with the 3. verse:

    Verse 3:

    She's got a heartful of promise
    she's got her hand on her heart
    and she's dancing,
    by the light of the moon
    she's got a headful of secrets
    sworn to the faith of love under will
    and she's dancing,
    by the light of the moon.

   |---------------------------------------------------------------------|
   |                                  | Rhythm B                         |
   |  She's a gift for the gods       |                                  |
   |---------------------------------------------------------------------|
   |                                  |                                  |
   |  and she's dancing               | Se     -      ve     -           |
   |---------------------------------------------------------------------|
   |  C(1)                            | Dsus4                            |
   |  ri     -      na                | Se     -      ve     -           |
   |---------------------------------------------------------------------|
   |  C(1)                            | Dsus4                            |
   |  ri     -      na                | Se     -      ve     -           |
   |---------------------------------------------------------------------|
*2*|  Em7                             | Em7                              |
   |  ri     -      na                |                                  |
   |---------------------------------------------------------------------|
   |  Emsus4(7)                       | Emsus4(7)                        |
   |                                  |                                  |
   |---------------------------------------------------------------------|
   |  Emsus4(9)                       | Emsus4(9)                        |
   |---------------------------------------------------------------------|
   |  C7M  /13(9)   C9/13             | C6            C7M  /13           |
   |---------------------------------------------------------------------|

    reapeat *2* to fade


   Comment:

   As for as I can remember the distorioned guitar plays like

   C(1), c(2), Dsus4, Dsus4(3)

   during the Refrain.

   Dsus4(3)
   3.
   e|xx|--|--|--|
   B|xx|--|--|--|
   G|--|--|--|--|
   D|--|xx|--|--|
   A|--|--|xx|--|
  *E|--|--|--|--|




THE MISSION - "Severina"

Comments, corrections etc. welcome.

Par Svensson, t89par@tdb.uu.se


Main Riff:

e -------------2-0----------------------0/2/0----------
B -------0---------3-0------------0-----------3-0------
G ---0-----0-----------0------3-----3-------------0----
D -2---2-----2-----------2--4---4-----4-------------4--
A -----------------------------------------------------
E -----------------------------------------------------

e ------------2-0----------2---
B ------0---------3-0------2---
G --0-----0-----------0----3---
D 2---2-----2-----------2--4---
A -----------------------------
E -----------------------------



D Em
    She's got her head in the clouds,

D Em
    She's got the stars in her eyes

G D
    She's dancing,

G D
    With a dream in her heart

D Em
    She's got the wind in her hair,

D   Em
    Moonchild shining bright

G         D
    She's dancing,

G D
    With a dream in her heart


    Em  C
    Severina

    C
    Severina


G Em
    She believes in angels,

D Em
    She believes in the will of the gods

G         D
    She's dancing,

G D
    Amongst the magic dust

D Em
    She believes in the midnight trance,

D Em
    She believes in love as a law

G         D
    She's dancing,

G D
    Amongst the magic dust


    Em  C
    Severina

    C
    Severina


G Em
    Starchild,

D Em
    Baby born of heaven


    Em  C
    Severina

    C
    Severina

Em  Em  ...  Em  D  C  D  Em
Em  Em  ...  Em  D  C  D  Em

    She's got her heart full of promise (?),
    She's got to hand in her heart (?)
    She's dancing,
    By the light of the moon
    She's got her head full of secrets,
    Sworn to the faith of love under will
    She's dancing,
    By the light of the moon

    Severina
    Severina

    She's a gift from the gods
    She's dancing

    Severina
    Severina
    Severina     
Добавлено: 14.11.2013
Другие материалы по этой песне:
  • Аккорды и текст

Страница создана 21.03.2012
http://primanota.ru/mission/severina-chords.htm
Привет, Гость.
Предлагаем пройти революционный курс по гитаре.
Подарок от PrimaNota.Ru, забирай!