PrimaNota.ru - самый крупный в мире бесплатный архив песенных текстов, аккордов, табулатур и нот


Mission - Naked And Savage - таба, видео

Регистрация Запомнить меня
Войти через:  Facebook Google Twitter Vk Yandex Mail.ru

Mission - Naked And Savage - таба, видео

Печатать
Просмотров: 79
The Mission
Naked and Savage
The First Chapter
Transcribed by: Tom Quinn

Band website:
http://www.themissionuk.com/

This is in Dm natural/pentatonic (hexatonic).  I haven't figured out the chords but 
they're easy enough to guess.  The chorus includes Dm and F.  Feel free to e-mail me 
(M0L3CH@yahoo.com) with any corrections.
Enjoy ;)

Tuning: Standard (E A D G B e)

INTRO RIFF (slow strum)           Repeat
e|-----1p0-----------------------------||
B|----3--------------------------------||
G|---2---------------------------------||
D|--0----------------------------------||
A|-------------------------------------||
E|-------------------------------------||


MAIN RIFF                                                         Repeat
e|----------0-0-1-1---------0-0-1-1---------3-3-1p0--------------------||
B|------3-3-------------3-3-------------1-1-------------1-1-3/5-5-3~--o||
G|--2-2-------------2-2-------------2-2-------------2-2----------------||
D|-(0)-------------(0)-------------(0)-------------(0)-----------------||
A|--------------------------------------------------------------------o||
E|---------------------------------------------------------------------||


The lyrics are all online, and mostly correct.  Have fun.


Key:

( )= Ghost note
 h = Hammer-on
 p = Pull-off
 \ = Slide up
 ~ = Vibrato
Добавлено: 28.11.2013
Вам также может быть интересно:
Другие материалы по этой песне:
  • Аккорды и текст

Страница создана 22.08.2013
http://primanota.ru/mission/naked-and-savage-chords.htm
Привет, Гость.
Предлагаем пройти революционный курс по гитаре.
Подарок от PrimaNota.Ru, забирай!