PrimaNota.ru - самый крупный в мире бесплатный архив песенных текстов, аккордов, табулатур и нот


Mission - Let Sleeping Dogs Die - таба, видео

Регистрация Запомнить меня
Войти через:  Facebook Google Twitter Vk Yandex Mail.ru

Mission - Let Sleeping Dogs Die - таба, видео

Печатать
Просмотров: 120
Уроки эстрадного вокала в Санкт-Петербурге
'Let Sleeping Dogs Die' by the Mission from the album 'God's Own Medicine' 

Tabbed thoughtfully by Richie Rich aka the celibate_monkey

celibate_monkey@yahoo.co.uk


(Ye traditional olde A chord shape)

E |-------|-------|-------|-------|-------| 
B |-------|-------|-------|---2---|-------|
G |-------|-------|---2---|-------|---2---|
D |-------|---2---|-------|-------|-------|
A |---0---|-------|-------|-------|-------|
E |-------|-------|-------|-------|-------|

(move the A shape to the fourth fret)

E |-------|-------|-------|-------|-------| 
B |-------|-------|-------|-4h5p4-|-------|
G |-------|-------|---4---|-------|---4---|
D |-------|---4---|-------|-------|-------|
A |---0---|-------|-------|-------|-------|
E |-------|-------|-------|-------|-------|

Play these two bars a couple of times and then

E |-------|-------|-------|-------|-------| 
B |-------|-------|-------|---2---|-------|
G |-------|-------|---2---|-------|---2---|
D |-------|---2---|-------|-------|-------|
A |---0---|-------|-------|-------|-------|
E |-------|-------|-------|-------|-------|

E |-------|-------|-------|-------|-------| 
B |-------|-------|-------|-4h5p4-|-------|
G |-------|-------|---4---|-------|---4---|
D |-------|---4---|-------|-------|-------|
A |---0---|-------|-------|-------|-------|
E |-------|-------|-------|-------|-------|

(move the A shape to the fifth fret)

E |-------|-------|-------|-------|-------| 
B |-------|-------|-------|---5---|-------|
G |-------|-------|---5---|-------|---5---|
D |-------|---5---|-------|-------|-------|
A |---0---|-------|-------|-------|-------|
E |-------|-------|-------|-------|-------|

E |-------|-------|-------|-------|-------| 
B |-------|-------|-------|-4h5p4-|-------|
G |-------|-------|---4---|-------|---4---|
D |-------|---4---|-------|-------|-------|
A |---0---|-------|-------|-------|-------|
E |-------|-------|-------|-------|-------|

Another masterpiece from simple Simon Hinkler. A very cool flower man.
     
Добавлено: 26.06.2013
Другие материалы по этой песне:
  • Аккорды и текст

Страница создана 26.06.2013
http://primanota.ru/mission/let-sleeping-dogs-die-chords.htm
Привет, Гость.
Предлагаем пройти революционный курс по гитаре.
Подарок от PrimaNota.Ru, забирай!