PrimaNota.ru - самый крупный в мире бесплатный архив песенных текстов, аккордов, табулатур и нот


Mission - Dream On - аккорды и текст, таба, видео

Регистрация Запомнить меня
Войти через:  Facebook Google Twitter Vk Yandex Mail.ru

Mission - Dream On - аккорды и текст, таба, видео

Печатать
Просмотров: 131
Уроки эстрадного вокала в Санкт-Петербурге
Dream On
Mission
		   From nicolas.ramain@wanadoo.fr Sat Feb 15 16:10:10 1997



@@@@@@@@@@@@@@@@@@@@@@@@@@@@@@@@@@@@@@@@@@@@@@@@@@@@@@@@@@@@@@@@@

 -------------------------
 THE MISSION - "Dream on"
 (S.Tyler/Hussey)
 From "Children" (1988)
 -------------------------


Transcribed by nico.

-=-=-=-=-=-=-=-=-=-=-=- TABLATURE EXPLANATION -=-=-=-=-=-=-=-=-=-=-=-=-
3/8   : Slide up
8\3   : Slide down
-=-=-=-=-=-=-=-=-=-=-=-=-=-=-=-=-=-=-=-=-=-=-=-=-=-=-=-=-=-=-=-=-=-=-=-
no rhythm tabbed.



  Clean intro
e:-1-----1-0-----1-----1-0-----1-----1-0-------3-----5-----6-----10\-|
B:---3-------1-----3-------3-----3-------1-------3---------6-----11\-|
G:-----2-------2-----4-------3-----2-------2-------------------------|
D:-0-------0-----0-------0-----0-------0-----0-----0---0-0---0-0-----|
A:-------------------------------------------------------------------|
E:-------------------------------------------------------------------|




e:---1-----0-----0-1-----1-0-----0-1-----1-0-------------------0-|
B:-----3-----1-------3-------3-------3-------1-----------6-------|
G:-------2-----2-------4-------3-------2-------2---2/3-------3---|
D:-0-------0-------0-------0-------0-------0-----0-----5---5-----|
A:---------------------------------------------------------------|
E:---------------------------------------------------------------|     
Добавлено: 12.08.2013
Другие материалы по этой песне:
  • Аккорды и текст

Страница создана 25.04.2012
http://primanota.ru/mission/dream-on-chords.htm
Привет, Гость.
Предлагаем пройти революционный курс по гитаре.
Подарок от PrimaNota.Ru, забирай!