PrimaNota.ru - самый крупный в мире бесплатный архив песенных текстов, аккордов, табулатур и нот


Mission Of Burma - Academy Fight Song - текст песни, таба, видео

Регистрация Запомнить меня
Войти через:  Facebook Google Twitter Vk Yandex Mail.ru

Mission Of Burma - Academy Fight Song - текст песни, таба, видео

Печатать
Просмотров: 107
Уроки эстрадного вокала в Санкт-Петербурге
Авторы музыки: Clint Conley
Авторы текста: Clint Conley
-------------------------------------------------------------------------------
                             Academy Fight Song - Mission Of Burma
-------------------------------------------------------------------------------
Tuning: E-A-D-G-Bb-D 

*I read somewhere that Roger Miller tuned down his B to Bb and his E to D in order to create
a kind of G Minor tuning*. It's apparent in the song when when jangles the chords.

This band is too good to have so few tabs. This song is too great to just have the sub-par R.E.M 
version only tabbed out

Play loud enough to get tinnitus
                               INTRO
D|---------------------------------------------------------------------------------------|
B|---------------------------------------------------------------------------------------|
G|---------------------------------------------------------------------------------------|
D|--8----8----8----8---------------------------------------------------------------------|
A|--8----8----8----8---------------------------------------------------------------------|
E|--6----6----6----6---------------------------------------------------------------------|
                               MAIN (with gusto!)
D|----0-------0--0--------0------0--0----------0-------0--0-----0-------0--0-------------|
B|------0-----0--0----------0----0--0------------0-----0--0-------0-----0--0-------------|
G|--------0---0--0------------0--0--0--------------0---0--0---------0---0--0-------------|
D|--3---------5--5-----3---------5--5--------8---------5--5---8---------5--5-------------|
A|--3---------5--5-----3---------5--5--------8---------5--5---8---------5--5-------------|
E|--1---------3--3-----1---------3--3--------6---------3--3---6---------3--3-------------|
"Walk in to my room-......."                  "Don't care what you say-..."

                               CHORUS-listen for rhythm 
e|---------------------------------------------------------------------------------------|
B|---------------------------------------------------------------------------------------|
G|--3--3--3--3---5--5--5--5--------------------------------------------------------------|
D|--5--5--5--5---6--6--6--6--------------------------------------------------------------|
A|--5--5--5--5---6--6--6--6--------------------------------------------------------------|
E|--3--3--3--3---4--4--4--4--------------------------------------------------------------|
"Maybe you're right-......."
e|---------------------------------------------------------------------------------------|
B|---------------------------------------------------------------------------------------|
G|--2--2--2--2---7--7--7--7--------------------------------------------------------------|
D|--3--3--3--3---8--8--8--8--------------------------------------------------------------|
A|--3--3--3--3---8--8--8--8--------------------------------------------------------------|
E|--1--1--1--1---6--6--6--6--------------------------------------------------------------|
"What's wrong or right-......"


SECOND GUITAR- octaves on the E and D

                                ENDING
e|---------------------------------------------------------------------------------------|
B|---------------------------------------------------------------------------------------|
G|--7--7--7--7--7--7--7--7--7--7--7--7---------------------------------------------------|
D|--8--8--8--8--8--8--8--8--8--8--8--8---------------------------------------------------|
A|--8--8--8--8--8--8--8--8--8--8--8--8---------------------------------------------------|
E|--6--6--6--6--6--6--6--6--6--6--6--6---------------------------------------------------|

e|---------------------------------------------------------------------------------------|
B|---------------------------------------------------------------------------------------|
G|--7--7--7--7--7--7--7--7--7--7--7--7---------------------------------------------------|
D|--8--8--8--8--8--8--8--8--8--8--8--8---------------------------------------------------|
A|--8--8--8--8--8--8--8--8--8--8--8--8---------------------------------------------------|
E|--6--6--6--6--6--6--6--6--6--6--6--6---------------------------------------------------|

(Hit this hard)
e|---0-----------------------------------------------------------------------------------|
B|---0-----------------------------------------------------------------------------------|
G|---0-----------------------------------------------------------------------------------|
D|---5-----------------------------------------------------------------------------------|
A|---5-----------------------------------------------------------------------------------|
E|---3-----------------------------------------------------------------------------------|

Let the D and Bb bleed in where you want- it's all about creating a block of melody!

************************************

| /   slide up
| \   slide down
| h   hammer-on
| p   pull-off
| ~   vibrato
| +   harmonic
| x   Mute note
| b   Bend
| pb  Pre-bend
| br  Bend release
| pbr Pre-bend release
| brb Bend release bend

************************************
Добавлено: 25.11.2014
Другие материалы по этой песне:
  • Аккорды и текст

Страница создана 25.03.2012
http://primanota.ru/mission-of-burma/academy-fight-song-chords.htm
Привет, Гость.
Предлагаем пройти революционный курс по гитаре.
Подарок от PrimaNota.Ru, забирай!