PrimaNota.ru - самый крупный в мире бесплатный архив песенных текстов, аккордов, табулатур и нот


Missing Persons - Words - текст песни, бас-таба, видео

Регистрация Запомнить меня
Войти через:  Facebook Google Twitter Vk Yandex Mail.ru

Missing Persons - Words - текст песни, бас-таба, видео

Печатать
Просмотров: 118
Новый альбом группы 'Черный Кузнец' по культовому сериалу 'Сверхъестественное'!
Авторы: Warren Cuccurullo, Terry Bozzio

Tabbed by: bassm99
E-mail: alanmatthews1966@yahoo.co.uk

Tuning: E, A, D, G

"Words" from the album "Spring Session M" (1982)
Written by Bozzio/Cuccurullo

Intro: (Play 4 Times)
 
G|--------------------------------------------------------------------------|
D|--------------------------------------------------------------------------|
A|--------------------------------------------------------------------------|
E|--55555555----------------------------------------------------------------|

Intro Verse:  

G|--------------------------------------------------------------------------|
D|--------------------------------------------------------------------------|
A|----------------10-10-10-10-10-10-10-10-99999999-55555555-----------------|
E|--55555555-(x5)-----------------------------------------------------------|


Verse: (Play 2 Times) 

G|--------------------------------------------------------------------------|
D|--------------------------------------------------------------------------|
A|----------------77777777-(x2)-55555555-(x2)-------------------------------|
E|--55555555-(x4)-----------------------------------------------------------|

Verse Continued:

G|--------------------------------------------------------------------------|
D|--------------------------------------------------------------------------|
A|----------------77777777-(x2)-55555555-99999999---------------------------|
E|--55555555-(x4)-----------------------------------------------------------|

Chorus:

G|--------------------------------------------------------------------------|
D|--------------------------------------------------------------------------|
A|----------------7777-----------10-10-10-10-77777777-77777777--------------|
E|--77777777-5555------(x3)-8888--------------------------------------------|

Repeat Verse:

Repeat Chorus:

Repeat Intro Verse:

Bridge:

G|--------------------------------------------------------------------------|
D|--------------------------------------------------------------------------|
A|-----------99999999-55555555----------------------------------------------|
E|--77777777-------------------55555555-(x3)--------------------------------|

G|--------------------------------------------------------------------------|
D|--------------------------------------------------------------------------|
A|-----------99999999-55555555-77777777-------------------------------------|
E|--77777777----------------------------------------------------------------|

Verse:

G|--------------------------------------------------------------------------|
D|--------------------------------------------------------------------------|
A|----------------77777777-(x2)-55555555-(x2)-------------------------------|
E|--55555555-(x4)-----------------------------------------------------------|

G|--------------------------------------------------------------------------|
D|--------------------------------------------------------------------------|
A|----------------77777777-(x2)-55555555-99999999---------------------------|
E|--55555555-(x4)-----------------------------------------------------------|

Chorus:

G|--------------------------------------------------------------------------|
D|--------------------------------------------------------------------------|
A|----------------7777-----------10-10-10-10-7777-9999----------------------|
E|--77777777-5555------(x3)-8888--------------------------------------------|

G|--------------------------------------------------------------------------|
D|--------------------------------------------------------------------------|
A|----------------7777-----------10-10-10-10-77777777-(x2)-55555555-(x2)----|
E|--77777777-5555------(x3)-8888--------------------------------------------|

Repeat Intro Verse:

End: (Play 5 Times) (Fades out - stops during 5th Time)

G|--------------------------------------------------------------------------|
D|--------------------------------------------------------------------------|
A|-----------10-10-10-10-10-10-10-10-99999999-55555555----------------------|
E|--55555555----------------------------------------------------------------|
Добавлено: 05.05.2014
Другие материалы по этой песне:
  • Аккорды и текст

Страница создана 09.07.2012
http://primanota.ru/missing-persons/words-chords.htm
Привет, Гость.
Предлагаем пройти революционный курс по гитаре.
Подарок от PrimaNota.Ru, забирай!