PrimaNota.ru - самый крупный в мире бесплатный архив песенных текстов, аккордов, табулатур и нот


Missing Persons - Walking in L.a. - текст песни, бас-таба, видео

Регистрация Запомнить меня
Войти через:  Facebook Google Twitter Vk Yandex Mail.ru

Missing Persons - Walking in L.a. - текст песни, бас-таба, видео

Печатать
Просмотров: 126
Уроки эстрадного вокала в Санкт-Петербурге
Авторы музыки: Terry Bozzio
Авторы текста: Terry Bozzio
Tabbed by: bassm99
E-mail: alanmatthews1966@yahoo.co.uk

Tuning: E, A, D, G

"Walking In L.A." from the album "Spring Session M" (1982)
Written by T.Bozzio

Intro: (Play Twice)
 
G|--------------------------------------------------------------------------|
D|--------------------------------------------------------------------------|
A|-----------33333333----------11111111-55555555----------------------------|
E|--33333333----------11111111----------------------------------------------|

Verse: (Play Twice)  

G|--------------------------------------------------------------------------|
D|--------------------8-----------------------------------------------------|
A|--66666666-8888--10---10-8--66666666-8888---------------------------------|
E|------------------------------------------8888----------------------------|

Chorus: (Play Twice)
 
G|--------------------------------------------------------------------------|
D|--------------------------------------------------------------------------|
A|-----------33333333----------11111111-55555555----------------------------|
E|--33333333----------11111111----------------------------------------------|

Repeat Verse:

Repeat Chorus:

Bass Stops: 1:09

Bridge: No Bass

Bridge End: Bass Comes In 2:03

G|--------------------------------------------------------------------------|
D|--------------------------------------------------------------------------|
A|--3333-5555---------------------------------------------------------------|
E|--------------------------------------------------------------------------|

Repeat Intro:

Guitar Solo: (Play Twice)  

G|--------------------------------------------------------------------------|
D|--------------------8-----------------------------------------------------|
A|--66666666-8888--10---10-8--66666666-8888---------------------------------|
E|------------------------------------------8888----------------------------|

Repeat Chorus:

Repeat Verse:

Repeat Chorus: (Play 4 Times)

End:

G|--------------------------------------------------------------------------|
D|--------------------------------------------------------------------------|
A|--66666666-77777777-88888888-10-10-10-10-8888-(x3)------------------------|
E|--------------------------------------------------------------------------|

G|--------------------------------------------------------------------------|
D|--------------------------------------------------------------------------|
A|--66666666-77777777--8--5-------------------------------------------------|
E|---------------------------3----------------------------------------------|
Добавлено: 02.07.2014
Другие материалы по этой песне:
  • Аккорды и текст

Страница создана 20.04.2012
http://primanota.ru/missing-persons/walking-in-la-chords.htm
Привет, Гость.
Предлагаем пройти революционный курс по гитаре.
Подарок от PrimaNota.Ru, забирай!