PrimaNota.ru - самый крупный в мире бесплатный архив песенных текстов, аккордов, табулатур и нот


Missing Persons - Surrender Your Heart - текст песни, бас-таба, видео

Регистрация Запомнить меня
Войти через:  Facebook Google Twitter Vk Yandex Mail.ru

Missing Persons - Surrender Your Heart - текст песни, бас-таба, видео

Печатать
Просмотров: 48
Tabbed by: bassm99
E-mail: alanmatthews1966@yahoo.co.uk

Tuning: E, A, D, G

"Surrender Your Heart" from the album "Rhyme + Reason" (1984)
Written by Bozzio/Bozzio/Cuccurullo/O'Hearn

Intro: 
 
G|--------------------------------------------------------------------------|
D|--------------------------------------------------------------------------|
A|--4-44--------------------------------------------------------------------|
E|--------5-55--7-77--7-77-(x4)--0-(x1)-------------------------------------|

Verse:

G|--------------------------------------------------------------------------|
D|--------------------------------------------------------------------------|
A|--------------------------------------------------------------------------|
E|--2-22--5-55--0-00--0-00-(x3)--2--22--5-55--7-77--7-77-(x1)--0-(x1)-------|

G|--------------------------------------------------------------------------|
D|--------------------------------------------------------------------------|
A|--------------------------------------------------------------------------|
E|--2-22--5-55--0-00--0-00-(x3)--2--22--5-55--7-77--7-77-(x1)---------------|

Chorus: (Play 4 Times)

G|--------------------------------------------------------------------------|
D|--------------------------------------------------------------------------|
A|--4-44--------------------------------------------------------------------|
E|--------5-55--7-77--7-77--------------------------------------------------|

Bridge: (This section requires a 5 string bass as played on the record)
        (Both 4 and 5 string versions provided)   

G|--------------------------------------------------------------------------|
D|--------------------------------------------------------------------------|
A|------------------5-(x1)--------------------------------------------------|
E|--4---5-(x3)--4-----------------------------------------------------------|

G|--------------------------------------------------------------------------|
D|--------------------------------------------------------------------------|
A|--------------------------------------------------------------------------|
E|--4---5-(x3)--4-----------------------------------------------------------|
B|------------------3-(x1)--------------------------------------------------|

Verse:

G|--------------------------------------------------------------------------|
D|--------------------------------------------------------------------------|
A|--------------------------------------------------------------------------|
E|--2-22--5-55--0-00--0-00-(x3)--2--22--5-55--7-77--7-77-(x1)---------------|

Repeat Chorus: (Play 10 Times)

End: (Fades Out)

G|--------------------------------------------------------------------------|
D|--------------------------------------------------------------------------|
A|--4-44--------------------------------------------------------------------|
E|--------------------------------------------------------------------------|
Добавлено: 10.11.2015
Другие материалы по этой песне:
  • Аккорды и текст

Страница создана 09.06.2012
http://primanota.ru/missing-persons/surrender-your-heart-chords.htm
Привет, Гость.
Предлагаем пройти революционный курс по гитаре.
Подарок от PrimaNota.Ru, забирай!