PrimaNota.ru - самый крупный в мире бесплатный архив песенных текстов, аккордов, табулатур и нот


Miss May I - Swing - текст песни, таба, бас-таба, видео

Регистрация Запомнить меня
Войти через:  Facebook Google Twitter Vk Yandex Mail.ru

Miss May I - Swing - текст песни, таба, бас-таба, видео

Печатать
Просмотров: 166
http://www.myspace.com/missmayi

Miss May I - Swing

Hey! This is my first tab, it took me awhile
 to figure it out, so please give me comments
 and corrections, and I will fix it if needed.
 Please rate it too!!!! If some parts are con-
fusing look at the song order to see what part
 your at. I hope you guys like it, enjoy!

~Ex 

Gtr 1 - Right
Gtr 2 - Left 
Gtr 3 - Middle 

[Chorus] Gtrs 1 2& 3 
00:12 - 00:38
E|--------------------|
B|--------------------|
G|--------------------|
D|-0-3-2----0-3-0-3-2-|   
A|-0-3-2----0-3-0-3-2-|
D|-0-3-2----0-3-0-3-2-|
PM . . .    . . . . . 

[Chorus p2] Gtrs 1 & 2 
00:26 - 00:36 (Not exact on the number of strums, just listen.)
e|--------------------------------------------------------------------|
B|--------------------------------------------------------------------|
G|--------------------------------------------------------------------|
D|--------------------------------------------------------------------| 
A|-111111111100000000000111111111110000000000011111111110000000000000-|
D|--------------------------------------------------------------------|
   ^ 1's and 0's here by the way.
e|--------------------------|
B|--------------------------|
G|--------------------------|
D|--------------------------|
A|-111111111111111111111111-|
D|--------------------------|

00:36 - 00:38 (Can barely hear this part so not 100% sure.)
Gtrs 1 2 & 3 
e|-----------------|
B|-----------------|
G|-----------------|
D|-0-0-0-0-0--00-0-|
A|-0-0-0-0-0--00-0-|
D|-0-0-0-0-0--00-0-|
PM . . . . .  .. . 


[Verse 1] Gtrs 1 & 2 
00:38 - 00:50
e|-----------------------------------------------|
B|-----------------------------------------------|
G|-----------------------------------------------|
D|-----------------------------------------------|
A|-------------------------------------------3p2-|
D|-00000003p2000000222222223333333333333-3p2-----|
PM .......   ...........................

(Hard to hear as well.)
e|--------------------|
B|--------------------|
G|--------------------|
D|-0-0-----00-8h9-3-2-|
A|-0-0-7h9-00-----3-2-|
D|-0-0-----00-----3-2-|
PM .       ..     .      

[Pre-Chorus] Gtrs 1 & 2 
00:51 - 01:02
e|-----------------------------------------|
B|-----------------------------------------|
G|-----------------------------------------|
D|-2-2-0----2-1-1-0-0---2-2-0----2-1-1-0-0-|
A|-2-2-0----2-1-1-0-0---2-2-0----2-1-1-0-0-|
D|-2-2-0----2-1-1-0-0---2-2-0----2-1-1-0-0-|
PM . . .    . . . . .   . . .    . . . . .


e|----------------------------------------|
B|----------------------------------------|
G|----------------------------------------|
D|----------------------------------5~---5|
A|-4-6-4-3-6-8-6-5-4-6-4-3-6-8-6-5--5~---5|
D|-4-6-4-3-6-8-6-5-4-6-4-3-6-8-6-5--5~---5|
PM . . . . . . . . . . . . . . . . 	     . 

[Chorus]
01:04 - 01:29

[Chorus p2]
01:17 - 01:29

[Verse]
01:30 - 01:41

[Pre-Chorus]
01:42 - 01:54

[Chorus]
01:55 - 02:21

[Chorus p2]
02:08 - 02:21

[Break] Gtrs 1 2 & 3 
02:20 - 02:33 (A little tricky with guitar 2)
e|------------------------------------------------|
B|------------------------------------------------|
G|---------------------Gtr2-----------------------|
D|-5~---5-5----5~--5-5-^5^-5----5~--5-5---5~--5-5-|
A|-5~---5-5----5~--5-5-^5^-5----5~--5-5---5~--5-5-|
D|-5~---5-5----5~--5-5-^5^-5----5~--5-5---5~--5-5-|


[Breakdown] Gtrs 1 & 2 
02:33 - 02:46 (Very tricky, listen carefully.)
e|--------------------------------------------------------|
B|--------------------------------------------------------|
G|--------------------------------------------------------|
D|-1-000-000-000-000-000-000-1~-1-000-000-000-000-000-000-|
A|-1-000-000-000-000-000-000-1~-1-000-000-000-000-000-000-|
D|-1-000-000-000-000-000-000-1~-1-000-000-000-000-000-000-|
PM . ... ... ... ... ... ...    . ... ... ... ... ... ...


e|-------------------------------------------------------|
B|-------------------------------------------------------|
G|-------------------------------------------------------|
D|-0-0-0--0-00-000-000--0-00-000-000--0-00-000-000-0-0-0-|
A|-0-0-0--0-00-000-000--0-00-000-000--0-00-000-000-0-0-0-|
D|-0-0-0--0-00-000-000--0-00-000-000--0-00-000-000-0-0-0-|
PM . . .  . .. ... ...  . .. ... ...  . .. ... ... . . . 

 
[Chorus]
02:48 - 03:12

[Chorus p2]
02:59 - 03:12

------------------------------------------------------------------------
Song Order
-------------

[Chorus]    00:12 - 00:38
[Chorus p2] 00:26 - 00:36 
[Verse]     00:38 - 00:50
[Pre-Chorus]00:51 - 01:02
[Chorus]    01:04 - 01:16
[Chorus p2] 01:17 - 01:29
[Verse]     01:30 - 01:41
[Pre-Chorus]01:42 - 01:54
[Chorus]    01:55 - 02:07
[Chorus p2] 02:08 - 02:21
[Break]     02:20 - 02:33 
[Breakdown] 02:33 - 02:46 
[Chorus]    02:48 - 02:58
[Chorus p2] 02:59 - 03:12

Legend
--------------
PM - Palm Mute
H - Hammer-On
P - Pull-Off
~ - Vibrato or Let Ring 
Добавлено: 05.09.2013
Другие материалы по этой песне:
  • Аккорды и текст

Страница создана 26.08.2013
http://primanota.ru/miss-may-i/swing-chords.htm
Привет, Гость.
Предлагаем пройти революционный курс по гитаре.
Подарок от PrimaNota.Ru, забирай!