PrimaNota.ru - самый крупный в мире бесплатный архив песенных текстов, аккордов, табулатур и нот


Miss May I - Sirens Song - таба, видео

Регистрация Запомнить меня
Войти через:  Facebook Google Twitter Vk Yandex Mail.ru

Miss May I - Sirens Song - таба, видео

Печатать
Просмотров: 100
Sirens Song
Miss May I
At Heart

Dropped Bb Tuning: (Bb F Bb Eb G C)

Not enough tabs from songs off of At Heart so I made this one, enjoy!
email: tabman96@gmail.com

Intro
(0:00-0:20)
Guitar 1
C |--------------------------------------------------------|
G |--------------------------------------------------------|
Eb|--------------------------------------------------------|
Bb|--------------------------------------------------------|
F |-0000-00------------------------------------------------|
Bb|-1111-11------------------------------------------------|

Guitar 2
C |--------------------------------------------------------|
G |--------------------------------------------------(x2)--|
Eb|--------------------------------------------------------|
Bb|---------3333-3333-3333-3333-3333-3333-3-333-3333-------|
F |---------7777-7777-7777-7777-7777-7777-7-444-4444-------|
Bb|--------------------------------------------------------|
            **** **** **** **** **** **** * *** ****
(Part below played TWICE)
Guitar 1
C |--------------------------------------------------------|
G |--------------------------------------------------------|
Eb|--------------------------------------------------------|
Bb|--------------------------------------------------------|
F |-0000-00------------------------------------------------|
Bb|-1111-11------------------------------------------------|

Guitar 2
C |--------------------------------------------------------|
G |--------------------------------------------------------|
Eb|--------------------------------------------------------|
Bb|---------3333-3333-3333-3333-3333-3333-3-333-3333-------|
F |---------7777-7777-7777-7777-7777-7777-7-444-4444-------|
Bb|--------------------------------------------------------|
            **** **** **** **** **** **** * *** ****

Verse 1
(0:20-0:41)
Play FOUR times
Guitar 1   (this riff is through the right speaker)
C |-----------------------------------------|
G |-----------------------------------------|
Eb|-14-----14---14---15-----15---15---12----|
Bb|----0-0----0----0----0-0----0----0----0--|
F |-----------------------------------------|
Bb|-----------------------------------------|
       * *    *    *    * *    *    *    *
C |-------------------------------------------|
G |-------------------------------------------|
Eb|-14-----14---14---17-----17---17-15-14-12--|
Bb|----0-0----0----0----0-0----0--------------|
F |-------------------------------------------|
Bb|-------------------------------------------|
       * *    *    *    * *    *
Guitar 2   (this one through the left)
C |----------------------------------------|
G |----------------------------------------|
Eb|-10-----10---10---12-----12---12---9----|
Bb|----0-0----0----0----0-0----0----0---0--|
F |----------------------------------------|
Bb|----------------------------------------|
       * *    *    *    * *    *    *   *
C |------------------------------------------|
G |------------------------------------------|
Eb|-10-----10---10---14-----14---14-12-10-9--|
Bb|----0-0----0----0----0-0----0-------------|
F |------------------------------------------|
Bb|------------------------------------------|
       * *    *    *    * *    *
(0:41-0:53)
Play TWICE
Guitar 1
C |--------------------------------------------------------|
G |--------------------------------------------------------|
Eb|--------------------------------------------------------|
Bb|--------------------------------------------------------|
F |-0000-00------------------------------------------------|
Bb|-1111-11------------------------------------------------|

Guitar 2
C |--------------------------------------------------------|
G |--------------------------------------------------------|
Eb|--------------------------------------------------------|
Bb|---------3333-3333-3333-3333-3333-3333-3-333-3333-------|
F |---------7777-7777-7777-7777-7777-7777-7-444-4444-------|
Bb|--------------------------------------------------------|
            **** **** **** **** **** **** * *** ****

(0:53-1:15)
BOTH guitars
C |--------------------------------------------------------------------|
G |--------------------------------------------------------------(x4)--|
Eb|--------------------------------------------------------------------|
Bb|-7b--------------------------7b-------------------------------------|
F |--------8---10---8------------------8---10-8-----888---101010-------|
Bb|----0-0---0----0---000-0000-----0-0---0------0-7-----8--------------|
       * *   *    *   *** ****     * *   *
C |------------------|
G |------------------|
Eb|------------------|
Bb|---------3--------|
F |--8-7-0--7-----4--|
Bb|------0----0-0----|
              * *

Chorus
(1:15-1:35)
BOTH guitars play TWICE
C |-----------------------------------------------------|
G |-----------------------------------------------------|
Eb|-----------------------------------------------------|
Bb|--0--------5-------8-------0--------8-------5--------|
F |--0-(x16)--5-(x8)--8-(x8)--0-(x16)--8-(x8)--5-(x8)---|
Bb|--0--------5-------8-------0--------8-------5--------|


Verse 2
(1:35-1:58)
Both play FOUR times
Guitar 1
C |---------------------------------------------------------|
G |---------------------------------------------------------|
Eb|---------------------------------------------------------|
Bb|--0~---3b------3b-3b------------3b------3b-3b-333-3333---|
F |--0~---4b--00--4b-4b--000-0000--4b--00--4b-4b-444-4444---|
Bb|--0~-------00---------000-0000------00-------------------|
              **         *** ****      **
Guitar 2
C |---------------------------------------------------------|
G |---------------------------------------------------------|
Eb|---------------------------------------------------------|
Bb|--0~---3b------3b-3b------------3b------3b-3b-333-3333---|
F |--0~---7b--00--7b-7b--000-0000--7b--00--7b-7b-777-7777---|
Bb|--0~-------00---------000-0000------00-------------------|
              **         *** ****      **

(1:58-2:18)
Play FOUR times
Guitar 1
C |-----------------------------------------|
G |-----------------------------------------|
Eb|-14-----14---14---15-----15---15---12----|
Bb|----0-0----0----0----0-0----0----0----0--|
F |-----------------------------------------|
Bb|-----------------------------------------|
       * *    *    *    * *    *    *    *
C |-------------------------------------------|
G |-------------------------------------------|
Eb|-14-----14---14---17-----17---17-15-14-12--|
Bb|----0-0----0----0----0-0----0--------------|
F |-------------------------------------------|
Bb|-------------------------------------------|
       * *    *    *    * *    *
Guitar 2
C |----------------------------------------|
G |----------------------------------------|
Eb|-10-----10---10---12-----12---12---9----|
Bb|----0-0----0----0----0-0----0----0---0--|
F |----------------------------------------|
Bb|----------------------------------------|
       * *    *    *    * *    *    *   *
C |------------------------------------------|
G |------------------------------------------|
Eb|-10-----10---10---14-----14---14-12-10-9--|
Bb|----0-0----0----0----0-0----0-------------|
F |------------------------------------------|
Bb|------------------------------------------|
       * *    *    *    * *    *

(2:18-2:41)
BOTH guitars
C |--------------------------------------------------------------------|
G |--------------------------------------------------------------(x4)--|
Eb|--------------------------------------------------------------------|
Bb|-7b--------------------------7b-------------------------------------|
F |--------8---10---8------------------8---10-8-----888---101010-------|
Bb|----0-0---0----0---000-0000-----0-0---0------0-7-----8--------------|
       * *   *    *   *** ****     * *   *      *
C |------------------|
G |------------------|
Eb|------------------|
Bb|---------3--------|
F |--8-7-0--7-----4--|
Bb|------0----0-0----|
              * *

Chorus
(2:41-3:01)
BOTH guitars play TWICE
C |-----------------------------------------------------|
G |-----------------------------------------------------|
Eb|-----------------------------------------------------|
Bb|--0--------5-------8-------0--------8-------5--------|
F |--0-(x16)--5-(x8)--8-(x8)--0-(x16)--8-(x8)--5-(x8)---|
Bb|--0--------5-------8-------0--------8-------5--------|


Bridge
(3:01-3:26)
BOTH guitars
C |--------------------------|
G |--------------------------|
Eb|--------------------------|
Bb|--12~-----8~-----5~-------|
F |--12~-----8~-----5~-------|
Bb|--12~-----8~-----5~-------|

Play FOUR times
Guitar 1
C |-----------------------------------------|
G |-----------------------------------------|
Eb|-14-----14---14---15-----15---15---12----|
Bb|----0-0----0----0----0-0----0----0----0--|
F |-----------------------------------------|
Bb|-----------------------------------------|
       * *    *    *    * *    *    *    *
C |-----------------------------------------------|
G |-----------------------------------------------|
Eb|-14-----14---14---17-----17---17-15-14-(12ph)--|
Bb|----0-0----0----0----0-0----0------------------|
F |-----------------------------------------------|
Bb|-----------------------------------------------|
       * *    *    *    * *    *
Guitar 2
C |----------------------------------------|
G |----------------------------------------|
Eb|-10-----10---10---12-----12---12---9----|
Bb|----0-0----0----0----0-0----0----0---0--|
F |----------------------------------------|
Bb|----------------------------------------|
       * *    *    *    * *    *    *   *
C |----------------------------------------------|
G |----------------------------------------------|
Eb|-10-----10---10---14-----14---14-12-10-(9ph)--|
Bb|----0-0----0----0----0-0----0-----------------|
F |----------------------------------------------|
Bb|----------------------------------------------|
       * *    *    *    * *    *
Guitar 3 (it's the only part of the song a 3rd one comes in)
C |----------------------------------------|
G |----------------------------------------|
Eb|----------------------------------------|
Bb|--0-0-0----00-0-0-0----0000-0-0-0-------|
F |--0-0-0----00-0-0-0----0000-0-0-0-------|
Bb|--0-0-0----00-0-0-0----0000-0-0-0-------|
     * * *    ** * * *    **** * * *

Outro
(3:26-3:53)
Both guitars play 4 times
C |-------------------------------------------------|
G |-------------------------------------------------|
Eb|-------------------------------------------------|
Bb|--3b---3b-------3b---3b-----------333-3333-------|
F |--7b-0-7b-0-----7b-0-7b-000-0000--444-7777-------|
Bb|-----0----0--------0----000-0000-----------------|
        *    *        *    *** ****

*=palm mute
/=slide up
\=slide down
~=hold note
(nh)=harmonic
(ph)=pinch
h=hammer on
p=pull off
b=bend
Добавлено: 08.08.2013
Другие материалы по этой песне:

Страница создана 08.08.2013
http://primanota.ru/miss-may-i/sirens-song-chords.htm
Привет, Гость.
Предлагаем пройти революционный курс по гитаре.
Подарок от PrimaNota.Ru, забирай!