PrimaNota.ru - самый крупный в мире бесплатный архив песенных текстов, аккордов, табулатур и нот


Miss May I - Masses Of A Dying Breed - таба, видео

Регистрация Запомнить меня
Войти через:  Facebook Google Twitter Vk Yandex Mail.ru

Miss May I - Masses Of A Dying Breed - таба, видео

Печатать
Просмотров: 194
-----------------------------------------------------------------
Masses of a Dying Breed - Miss May I
-----------------------------------------------------------------
Tabbed by: Sarah	
Email: crazybananas000@writeme.com
Tuning: Drop C


E|---------------------------------------------------------------|
B|---------------------------------------------------------------|
G|---------------------------------------------------------------|
D|-0—-8--10--3--0--7--8--10--3--0--------------------------------|
A|-0--8--10--3—-0--7--8--10--3--0--0000000000000000--------------|
E|-0--8--10--3—-0--7--8--10--3--0--0000000000000000--------------|
                                   ................

E|---------------------------------------------------------------|
B|---------------------6h8---------------------------------------|
G|----7-7---7-7----7h9--------7-7---7-7----10-10p9---------------|
D|-000-0-000-0-00----------000-0-000-0-00----0-------------------|
A|---------------------------------------------------------------|
E|---------------------------------------------------------------|
   ... . ... . ..          ... . ... . ..    .

E|---------------------------------------------------------------|
B|---------------------6h8-----------------------10--------------|
G|----7-7---7-7----7h9--------7-7---7-7----7h9-10----------------|
D|-888-8-888-8-88----------555-5-555-5-55------------------------|
A|---------------------------------------------------------------|
E|---------------------------------------------------------------|
   ... . ... . ..          ... . ... . ..

E|---------------------------------------------------------------|
B|---------------------6h8---------------------------------------|
G|----7-7---7-7----7h9--------7-7---7-7----10-10p9---------------|
D|-000-0-000-0-00----------000-0-000-0-00----0-------------------|
A|---------------------------------------------------------------|
E|---------------------------------------------------------------|
   ... . ... . ..          ... . ... . ..    .

E|---------------------------------------------------------------|
B|---------------------6h8-----------------------10--------------|
G|----7-7---7-7----7h9--------7-7---7-7----7h9-10----------------|
D|-888-8-888-8-88----------555-5-555-5-55------------------------|
A|---------------------------------------------------------------|
E|---------------------------------------------------------------|
   ... . ... . ..          ... . ... . ..

E|---------------------------------------------------------------|
B|---------------------------------------------------------------|
G|---------------------------------------------------------------|
D|---------------------------------------------------------------|
A|----5-5---5-5---5—-5h8----5-5---5-5---8p7-5h7------------------|
E|-000-0-000-0-000-0-----000-0-000-0-000-------------------------|
   ... . ... . ... .     ... . ... . ...

E|---------------------------------------------------------------|
B|---------------------------------------------------------------|
G|---------------------------------------------------------------|
D|---------------------------------------------------------------|
A|----8-8---7-7---5-5---5-5---5-5---5--5h7-----------------------|
E|-555-5-555-5-555-5-888-8-888-8-888-8---------------------------|
   ... . ... . ... . ... . ... . ... .

E|---------------------------------------------------------------|
B|---------------------------------------------------------------|
G|---------------------------------------------------------------|
D|---------------------------------------------------------------|
A|----5-5---5-5---5—-5h8----5-5---5-5---8p7-5h7------------------|
E|-000-0-000-0-000-0-----000-0-000-0-000-------------------------|
   ... . ... . ... .     ... . ... . ...

E|---------------------------------------------------------------|
B|---------------------------------------------------------------|
G|---------------------------------------------------------------|
D|---------------------------------------------------------------|
A|----8-8---7-7---5-5---5-5---5-5---5--5h7-----------------------|
E|-555-5-555-5-555-5-888-8-888-8-888-8---------------------------|
   ... . ... . ... . ... . ... . ... .


E|---------------------------------------------------------------|
B|---------8--------8--------8—--13p10---------------------------|
G|--7-9-10---7-9-10---7-9-10-------------10h12-------------------|
D|-0-0-0--0-0-0-0--0-0-0-0--0-00------00-------------------------|
A|---------------------------------------------------------------|
E|---------------------------------------------------------------|
   . . .  . . . .  . . . .  . ..      .. 

E|---------------------------------------------------------------|
B|---------8---13p10------------------8---13p10------------------|
G|--7-9-10-------------10h12---7-9-10-------------10h12----------|
D|-0-0-0--0-00------00--------0-0-0--0-00------00----------------| 
A|---------------------------------------------------------------|
E|---------------------------------------------------------------|
   . . .  . ..      ..        . . .  . ..      ..


E|---------------------8h10--------------------------------------|
B|---------8---13p10------------------8---13p10------------------|
G|--7-9-10---------------------7-9-10-------------10h12----------|
D|-0-0-0--0-00------00--------0-0-0--0-00------00----------------| 
A|---------------------------------------------------------------|
E|---------------------------------------------------------------|
   . . .  . ..      ..        . . .  . ..      ..

E|---------------------------------------------------------------|
B|---------8---13p10------------------8---13p10------------------|
G|--7-9-10-------------10h12---7-9-10-------------10h12----------|
D|-0-0-0--0-00------00--------0-0-0--0-00------00----------------| 
A|---------------------------------------------------------------|
E|---------------------------------------------------------------|
   . . .  . ..      ..        . . .  . ..      ..

E|---------------------8h10--------------------------------------|
B|---------8---13p10---------------------------------------------|
G|--7-9-10-------------------------------------------------------|
D|-0-0-0--0-00------00-------------------------------------------| 
A|---------------------------------------------------------------|
E|---------------------------------------------------------------|
   . . .  . ..      ..

E|---------------------------------------------------------------|
B|---------------------------------------------------------------|
G|---------------------------------------------------------------|
D|---------------------------------------------------------------|
A|----5-5---5-5---5—-5h8----5-5---5-5---8p7-5h7------------------|
E|-000-0-000-0-000-0-----000-0-000-0-000-------------------------|
   ... . ... . ... .     ... . ... . ...

E|---------------------------------------------------------------|
B|---------------------------------------------------------------|
G|---------------------------------------------------------------|
D|---------------------------------------------------------------|
A|----8-8---7-7---5-5---5-5---5-5---5--5h7-----------------------|
E|-555-5-555-5-555-5-888-8-888-8-888-8---------------------------|
   ... . ... . ... . ... . ... . ... .

E|---------------------------------------------------------------|
B|---------------------------------------------------------------|
G|---------------------------------------------------------------|
D|---------------------------------------------------------------|
A|----5-5---5-5---5—-5h8----5-5---5-5---8p7-5h7------------------|
E|-000-0-000-0-000-0-----000-0-000-0-000-------------------------|
   ... . ... . ... .     ... . ... . ...

E|---------------------------------------------------------------|
B|---------------------------------------------------------------|
G|---------------------------------------------------------------|
D|---------------------------------------------------------------|
A|----8-8---7-7---5-5---5-5---5-5---5--5h7-----------------------|
E|-555-5-555-5-555-5-888-8-888-8-888-8---------------------------|
   ... . ... . ... . ... . ... . ... .


E|---------------------------------------------------------------|
B|---------------------------------------------------------------|
G|---------------------------------------------------------------|
D|---------------------------------------------------------------| x2
A|-000-000--000-000—000000-000-000---000000----------------------|
E|-000-000--000-000—000000-000-000---000000----------------------|
   ... ...  ... ... ...... ... ...   ......                       then

E|---------------------------------------------------------------|
B|---------------------------------------------------------------|
G|---------------------------------------------------------------|
D|---------------------------------------------------------------| x2
A|-000-000---000000-000-000--000-000--000-000--------------------|
E|-000-000---000000-000-000--000-000--000-000--------------------|
   ... ...   ...... ... ...  ... ...  ... ... 

E|---------------------------------------------------------------|
B|---------------------------------------------------------------|
G|---------------------------------------------------------------|
D|--8--10--3--0--7--8--10--3--0----------------------------------|
A|--8--10--3—-0--7--8--10--3--0--0000000000000000----------------|
E|--8--10--3—-0--7--8--10--3--0--0000000000000000----------------|
                                 ................


E|---------------------------------------------------------------|
B|---------8--------8--------8—-------8--------8—--13p10---------|
G|--7-9-10---7-9-10---7-9-10---7-9-10---7-9-10--------------10h12|
D|-0-0-0--0-0-0-0--0-0-0-0--0-0-0-0--0-0-0-0—-0-00-------00------|
A|---------------------------------------------------------------|
E|---------------------------------------------------------------|
   . . .  . . . .  . . . .  . . . .  . . . .  . ..       .. 

E|---------------------------------------------------------------|
B|---------8---13p10------------------8---13p10------------------|
G|--7-9-10-------------10h12---7-9-10-------------10h12----------|
D|-0-0-0--0-00------00--------0-0-0--0-00------00----------------| 
A|---------------------------------------------------------------|
E|---------------------------------------------------------------|
   . . .  . ..      ..        . . .  . ..      ..


E|---------------------8h10--------------------------------------|
B|---------8---13p10------------------8---13p10------------------|
G|--7-9-10---------------------7-9-10-------------10h12----------|
D|-0-0-0--0-00------00--------0-0-0--0-00------00----------------| 
A|---------------------------------------------------------------|
E|---------------------------------------------------------------|
   . . .  . ..      ..        . . .  . ..      ..

E|---------------------------------------------------------------|
B|---------8---13p10------------------8---13p10------------------|
G|--7-9-10-------------10h12---7-9-10-------------10h12----------|
D|-0-0-0--0-00------00--------0-0-0--0-00------00----------------| 
A|---------------------------------------------------------------|
E|---------------------------------------------------------------|
   . . .  . ..      ..        . . .  . ..      ..

E|---------------------8h10--------------------------------------|
B|---------8---13p10---------------------------------------------|
G|--7-9-10-------------------------------------------------------|
D|-0-0-0--0-00------00-------------------------------------------| 
A|---------------------------------------------------------------|
E|---------------------------------------------------------------|
   . . .  . ..      ..

E|---------------------------------------------------------------|
B|---------------------------------------------------------------|
G|---------------------------------------------------------------|
D|-8-88-8-888-7-5-55-5-555-7-0-00-0-000----0-00-0-000-7----------|
A|-8-88-8-888-7-5-55-5-555-7-0-00-0-000-3*-0-00-0-000-7----------|
E|-8-88-8-888-7-5-55-5-555-7-0-00-0-000----0-00-0-000-7----------|
     ..   ...     ..   ...     ..   ...      ..   ...

E|---------------------------------------------------------------|
B|---------------------------------------------------------------|
G|---------------------------------------------------------------|
D|-8-88-8-888-7-5-55-5-555-7-0-00-0-000000-0-00-0-000-7----------|
A|-8-88-8-888-7-5-55-5-555-7-0-00-0-000000-0-00-0-000-7----------|
E|-8-88-8-888-7-5-55-5-555-7-0-00-0-000000-0-00-0-000-7----------|
     ..   ...     ..   ...     ..   ......   ..   ...

E|---------------------------------------------------------------|
B|---------------------------------------------------------------|
G|---------------------------------------------------------------|
D|---------------------------------------------------------------|
A|-8~--7~-5~--3~-5~---7~-8~--7~-10~--7~-5~--7~-8~--12~-10~-7~-8~-|
E|---------------------------------------------------------------|
Добавлено: 20.11.2013
Другие материалы по этой песне:
  • Аккорды и текст

Страница создана 15.09.2013
http://primanota.ru/miss-may-i/masses-of-a-dying-breed-chords.htm
Привет, Гость.
Предлагаем пройти революционный курс по гитаре.
Подарок от PrimaNota.Ru, забирай!