PrimaNota.ru - самый крупный в мире бесплатный архив песенных текстов, аккордов, табулатур и нот


Miss May I - Forgive And Forget - текст песни, таба, видео

Регистрация Запомнить меня
Войти через:  Facebook Google Twitter Vk Yandex Mail.ru

Miss May I - Forgive And Forget - текст песни, таба, видео

Печатать
Просмотров: 141
-------------------------------------------------------------------------------
			     Forgive and Forget - Miss May I
-------------------------------------------------------------------------------
Tabbed by: jrhintze
Email:johnrussell1000@gmail.com

Tuning:Drop C ( C G C F A D ) lead

It is just the lead until I finish working on the rhythm. If you have any 
questions or improvements just email me

INTRO x4	
D|---------------------------------------------------------------------------|
A|---------------------------------------------------------------------------|
F|---------------------------------------------------------------------------|
C|---------------------------------------------------------------------------|
G|---------4------------------4---------4------------------------------------|
C|-4-----------7---3------4-------7---4---4--3-------------------------------|
	Alternate Picking 

VERSE I x4
D|---------------------------------------------------------------------------|
A|---------------------------------------------------------------------------|
F|---------------------------------------------------------------------------|
C|---------------------------------------------------------------------------|
G|---------------------------------------------------------------------------|
C|-0--0-8-0-7-0-4--0-4--4h7p4----0--0-4-0-1-0-4--0-1--1h4p1------------------|
      .   .   .    .                .   .   .    .

Breakdown I x4
D|---------------------------------------------------------------------------|
A|---------------------------------------------------------------------------|
F|---------------------------------------------------------------------------|
C|---------------------------------------------------------------------------|
G|--0-0000----0000----0000-0--0000-0000--------------------------------------|
C|--0-0000----0000----0000-0--0000-0000--------------------------------------|
    . ....    ....    .... .  .... ....

VERSE II 								x5
D|---------------------------------------------------------------------------|
A|---------------------------------------------------------------------------|
F|---------------------------------------------------------------------------|
C|---------------------------------------------------------------------------| 
G|-----8---8-----8---8----8---8------12---12-----10---10----10---10----------|
C|--00---0-----0---0----0---0-----88----8------7----7-----7----7-------------|
									x4
D|---------------------------------------------------------------------------|
A|---------------------------------------------------------------------------|
F|-----------10--------------------------------------------------------------|
C|--7------7-------8-------8/-10-------10------------------------------------|
G|--8----8---------10---10----12----12---------------------------------------|
C|--7--7-----------8--8-------10-10------------------------------------------|
	Let notes ring

D|---------------------------------------------------------------------------|
A|---------------------------------------------------------------------------|
F|--------------------------------------------------------------------10-----|
C|------------------------------------------------------------------7--------|
G|--0--0-0-0-0-0-----0--0-0-0-0-0-----0--0-0-0-0-0-----0--0-0-0---8----------|
C|--0--0-0-0-0-0-1h4-0--0-0-0-0-0-1h4-0--0-0-0-0-0-1h4-0--0-0-0-7------------|
       . . . . .        . . . . .        . . . . .        . . .

CHORUS 
					x4				
D|-------------------------------------------|-------------------------------|
A|-------------------------------------------|-------------------------------|
F|-----------10------------------------------|-----------10------------------|
C|--7------7-------8-------8/-10-------10----|--7------7---------------------|
G|--8----8---------10---10----12----12-------|--8----8-----------------------|
C|--7--7-----------8--8-------10-10----------|--7--7-------------------------|
	Let notes ring				Play this after 4th time

BREAKDOWN II
D|---------------------------------------------------------------------------|
A|---------------------------------------------------------------------------|
F|---------------------------------------------------------------------------|
C|---------------------------------------------------------------------------|
G|--0-0-0-0-0-0-0-0-0-0-0-0-0-0-0-0--00000000000000000000000000000000--------|
C|--0-0-0-0-0-0-0-0-0-0-0-0-0-0-0-0--00000000000000000000000000000000--------|
    . . . . . . . . . . . . . . . .  ................................

D|---------------------------------------------------------------------------|
A|---------------------------------------------------------------------------|
F|---------------------------------------------------------------------------|
C|---------------------------------------------------------------------------|
G|--0-0--0-0-0-0--0-0--0-0-0-0-----------------------------------------------|
C|--0-0--0-0-0-0--0-0--0-0-0-0-----------------------------------------------|
    . .  . . . .  . .  . . . .
D|---------------------------------------------------------------------------|
A|---------------------------------------------------------------------------|
F|---------------------------------------------------------------------------|
C|---------------------------------------------------------------------------|
G|--0-0-0-0-0-0-0-0-0-0-0-0-0-0-0-0--00000000000000000000000000000000--------|
C|--1-1-1-1-1-1-1-1-1-1-1-1-1-1-1-1--11111111111111111111111111111111--------|
    . . . . . . . . . . . . . . . .  ................................
D|---------------------------------------------------------------------------|
A|---------------------------------------------------------------------------|
F|---------------------------------------------------------------------------|
C|---------------------------------------------------------------------------|
G|--0-0--0-0-0-0--0-0--0-0-0-0-0-0-------------------------------------------|
C|--1-1--1-1-1-1--1-1--1-1-1-1-1-1-------------------------------------------|
    . .  . . . .  . .  . . . . . .

OUTRO
D|---------------------------------------------------------------------------|
A|---------------------------------------------------------------------------|
F|---------------------------------------------------------------------------|
C|--7----------5----------8----------7---------------------------------------|
G|--8----------7----------10---------8---------------------------------------|
C|--7----------5----------8----------7---------------------------------------|
								    x4
D|---------------------------------------------------------------------|-----|
A|---------------------------------------------------------------------|-----|
F|---------------------------------------------------------------------|-----|
C|--7-7-7-7-7-7-7-7-7-7-7-7-7-7-7-7--------5-5-5--------5-5-5------8---|--0--|
G|--8-8-8-8-8-8-8-8-8-8-8-8-8-8-8-8--0-0-0-7-7-7--0-0-0-7-7-7--0-0-10--|--0--|
C|--7-7-7-7-7-7-7-7-7-7-7-7-7-7-7-7--0-0-0-5-5-5--0-0-0-5-5-5--0-0-8---|--0--|
                                     . . .        . . .        . .    Let ring
								      

 
| /  slide up
| \  slide down
| h  hammer-on
| p  pull-off
| ~  vibrato
| +  harmonic
| x  Mute note
 
Добавлено: 25.11.2013
Другие материалы по этой песне:
  • Аккорды и текст

Страница создана 09.07.2013
http://primanota.ru/miss-may-i/forgive-and-forget-chords.htm
Привет, Гость.
Предлагаем пройти революционный курс по гитаре.
Подарок от PrimaNota.Ru, забирай!