PrimaNota.ru - самый крупный в мире бесплатный архив песенных текстов, аккордов, табулатур и нот


Miss May I - Day By Day - текст песни, таба, видео

Регистрация Запомнить меня
Войти через:  Facebook Google Twitter Vk Yandex Mail.ru

Miss May I - Day By Day - текст песни, таба, видео

Печатать
Просмотров: 172
 Miss May I - Day By Day
-------------------------
My first tab. The one part I'm really unsure of is the lead part during the breakdown, 
let me know if you think something else fits better.


Tuning Drop C (CGCFAD)

Intro Part 1

        Gtr. 1
D|--------------------------------------------------------------------|
A|--------------------------------------------------------------------|
F|--------------------------------------------------------------------|
C|------8-----7-----10-----8-----7h8-----8-----7-----3-----7-----5h7--|
G|--------------------------------------------------------------------|
C|--0-0---0-0---0-0----0-0---0-0-----0-0---0-0---0-0---0-0---0-0------|
    . .   . .   . .    . .   . .     . .   . .   . .   . .   . .

Intro Part 2

        Gtr. 1
D|--------------------------------------------------------------------|
A|--------------------------------------------------------------------|
F|--------------------------------------------------------------------|
C|------8-----7-----10-----8-----7h8-----8-----7-----3-----7-----5h7--|
G|--------------------------------------------------------------------|
C|--0-0---0-0---0-0----0-0---0-0-----0-0---0-0---0-0---0-0---0-0------| x2
    . .   . .   . .    . .   . .     . .   . .   . .   . .   . .

        Gtr. 2
D|-----------------------------------|
A|-----------------------------------|
F|-----------------------------------|
C|--0-0-0-0--0-0-0--8-0-0-7-0-0-3h5--|
G|--0-0-0-0--0-0-0--8-0-0-7-0-0-3h5--|
C|--0-0-0-0--0-0-0--8-0-0-7-0-0-3h5--| x2
    . . . .  . . .    . .   . .

Verse

        Gtr. 1/2
D|-----------------------------------|
A|-----------------------------------|
F|-----------------------------------|
C|--0-0-0-0--0-0-0--8-0-0-7-0-0-3h5--|
G|--0-0-0-0--0-0-0--8-0-0-7-0-0-3h5--|
C|--0-0-0-0--0-0-0--8-0-0-7-0-0-3h5--| x6
    . . . .  . . .    . .   . .

This is the way it sounds like it is played the last two times

D|-----------------------------------|
A|-----------------------------------|
F|-----------------------------------|
C|--0-0-0-0--000-0--8-0-0-7-0-0-3h5--|
G|--0-0-0-0--000-0--8-0-0-7-0-0-3h5--|
C|--0-0-0-0--000-0--8-0-0-7-0-0-3h5--| x2
    . . . .  ... .    . .   . .

Chorus

        Gtr.1/2
D|--------------------------------------------|
A|--------------------------------------------|
F|--------------------------------------------|
C|--0000000033333333101010101010101077777777--|
G|--0000000033333333-8-8-8-8-8-8-8-877777777--|
C|--0000000033333333-8-8-8-8-8-8-8-877777777--| x4

Pre-Verse

        Gtr. 1
D|--------------------------------------------------------------------|
A|--------------------------------------------------------------------|
F|--------------------------------------------------------------------|
C|------8-----7-----10-----8-----7h8-----8-----7-----3-----7-----5h7--|
G|--------------------------------------------------------------------|
C|--0-0---0-0---0-0----0-0---0-0-----0-0---0-0---0-0---0-0---0-0------| x2
    . .   . .   . .    . .   . .     . .   . .   . .   . .   . .

        Gtr. 2
D|-----------------------------------|
A|-----------------------------------|
F|-----------------------------------|
C|--0-0-0-0--0-0-0--8-0-0-7-0-0-3h5--|
G|--0-0-0-0--0-0-0--8-0-0-7-0-0-3h5--|
C|--0-0-0-0--0-0-0--8-0-0-7-0-0-3h5--| x2
    . . . .  . . .    . .   . .

Verse

        Gtr. 1/2
D|-----------------------------------|
A|-----------------------------------|
F|-----------------------------------|
C|--0-0-0-0--000-0--8-0-0-7-0-0-3h5--|
G|--0-0-0-0--000-0--8-0-0-7-0-0-3h5--|
C|--0-0-0-0--000-0--8-0-0-7-0-0-3h5--| x8
    . . . .  ... .    . .   . .

Chorus

        Gtr.1/2
D|--------------------------------------------|
A|--------------------------------------------|
F|--------------------------------------------|
C|--0000000033333333101010101010101077777777--|
G|--0000000033333333-8-8-8-8-8-8-8-877777777--|
C|--0000000033333333-8-8-8-8-8-8-8-877777777--| x4

Breakdown Part 1

        Gtr. 1
D|---------||-------------------------------------------------------------|
A|---------||-------------------------------------------------------------|
F|---------||-------------------------------------------------------------|
C|--0~-----||--000~-000~-000~-000~-00000000-000~-000~-000~-000~-0~-0~-0~--|
G|--0~-----||--000~-000~-000~-000~-00000000-000~-000~-000~-000~-0~-0~-0~--|
C|--0~-----||--000~-000~-000~-000~-00000000-000~-000~-000~-000~-1~-1~-1~--|
               ...  ...  ...  ...  ........ ...  ...  ...  ...  .  .  .

        Gtr. 2
D|---------|
A|---------|
F|---------|
C|--0~-----|
G|--0~-----|
C|--0~-----| let ring through Gtr. 1 breakdown

Breakdown Part 2

        Gtr. 1
D|--------------------------------------------|
A|--------------------------------------------|
F|--------------------------------------------|
C|--000-000-000-000-00000000-000-000-000-000--|
G|--000-000-000-000-00000000-000-000-000-000--|
C|--000-000-000-000-00000000-000-000-000-000--|
    ... ... ... ... ........ ... ... ... ...

        Gtr. 2
D|-------------------------------------------------|
A|-------------------------------------------------|
F|-------------------------------------------------|
C|--/////////////////////////////////////////////--|
G|--/////////////////////////////////////////////--|
C|--/////////////////////////////////////////////--|

Breakdown Part 3

        Gtr. 1 tremelo picked
D|-----------------------------------------|
A|-----------------------------------------|
F|------------------------------------14b--|
C|--12----------13----------17161716-------|
G|-----------------------------------------|
C|-----------------------------------------| x2

        Gtr. 2
D|-----------------------------------------------------|
A|-----------------------------------------------------|
F|-----------------------------------------------------|
C|--000-000-000-000-00000000-000-000-000-000-0~-0~-0~--|
G|--000-000-000-000-00000000-000-000-000-000-0~-0~-0~--|
C|--000-000-000-000-00000000-000-000-000-000-1~-1~-1~--| x4
    ... ... ... ... ........ ... ... ... ... .  .  .

Post-Breakdown/Pre-Chorus

        Gtr. 1                       Gtr. 2
D|--------------------|      D|--------------------|
A|--------------------|      A|--------------------|
F|--------------------| then F|----------10--------|
C|------7---10p7---7--|      C|------7------7---7--|
G|--------------------|      G|--------------------|
C|--0-0---0------0----|      C|--0-0---0------0----|
    . .   .      .               . .   .      .

Chorus

        Gtr.1/2
D|--------------------------------------------|
A|--------------------------------------------|
F|--------------------------------------------|
C|--0000000033333333101010101010101077777777--|
G|--0000000033333333-8-8-8-8-8-8-8-877777777--|
C|--0000000033333333-8-8-8-8-8-8-8-877777777--| x4

Outro

        Gtr. 1
D|--------------------------------------------------------------------|
A|--------------------------------------------------------------------|
F|--------------------------------------------------------------------|
C|------8-----7-----10-----8-----7h8-----8-----7-----3-----7-----5h7--|
G|--------------------------------------------------------------------|
C|--0-0---0-0---0-0----0-0---0-0-----0-0---0-0---0-0---0-0---0-0------| x2
    . .   . .   . .    . .   . .     . .   . .   . .   . .   . .

        Gtr. 2
D|-----------------------------------|
A|-----------------------------------|
F|-----------------------------------|
C|--0-0-0-0--0-0-0--8-0-0-7-0-0-3h5--|
G|--0-0-0-0--0-0-0--8-0-0-7-0-0-3h5--|
C|--0-0-0-0--0-0-0--8-0-0-7-0-0-3h5--| x2

        Gtr. 1/2
D|------|
A|------|
F|------|
C|--0~--|
G|--0~--|
C|--0~--|
Добавлено: 07.09.2013
Другие материалы по этой песне:
  • Аккорды и текст

Страница создана 28.07.2013
http://primanota.ru/miss-may-i/day-by-day-chords.htm
Привет, Гость.
Предлагаем пройти революционный курс по гитаре.
Подарок от PrimaNota.Ru, забирай!