PrimaNota.ru - самый крупный в мире бесплатный архив песенных текстов, аккордов, табулатур и нот


Miss May I - Apologies Are For The Weak - текст песни, таба, видео

Регистрация Запомнить меня
Войти через:  Facebook Google Twitter Vk Yandex Mail.ru

Miss May I - Apologies Are For The Weak - текст песни, таба, видео

Печатать
Просмотров: 150
In first guitar
D---------------------------]------------------------|
A------------INTRO----------]-------VERSE-I----------|
F---------------------------]------------------------|
C---------------------------]------------------------|
G-00-0-0-00-0-0-00-0-000000-]57--57--78--57-5-875----|
C-11-1-1-11-1-1-11-1-111111-]--00--00--00--0-0---875-|
PM.. . . .. . . .. . ......    ..  ..  ..  . .
D---------------------------]
A---------------------------]
F---------------------------]
C---------------------------]  6X
G---810--810-1012-810-810--7]
C-88---88---8----8---8-----8]
  ..   ..   .    .   .
D-------------------------------------------------------]
A--------------VERSE-2----------------------------------]
F-------------------------------------------------------]
C-------------------------3523--------------------------] 4X
G-12------101210810-000000----35------8-8-8-8h10-10-8-12]
C---888888----------------------000000-0-0-0----0--0-0--]
    ......          ......      ...... . . .    .  . .
D-------------------VERSE-3---------------]
A-----------------------------------------]
F-----------------------------------------]
C-----------------------------------------] 2X
G--------------------87575----------------]
C-000000000220000000------0000000000875774]
                     .....          tremelo
D----------------------------------------------]
A----------------------------------------------]
F----------------------------------------------]
C----------------------------------------------]
G---8-8--88-8-8--8-8---8-88-88-----------------]
C-55-5-55--5-5-55-6-666-6--6---8887775557775554]
  .. . ..  . . .. . ... .  .    TREMILO PICK
BE BY MY SIDE THIS WAS SUPPOSED TO LAST FOREVER
D--------------------------------]----------------------------]
A--------------------------------]----------------------------]
F-------------LET RING-----------]----------------------------]
C-8---------7---------3---------2]----------------------------]
G-8---------8---------3---------3]-888888-888888-333333-333333]
C-8---------7---------3---------2]-888888-777777-333333-222222]
                                   ...... ...... ...... ......
C--------0--------------0---------------------0---------0------------]
G-33-3-3-0-------33-3-3-0---------------------0--33-3-3-0------------]
C-22-2-2-0-------22-2-2-0--------887755445544-0--22-2-2-0--8877554455]
  .. . .         .. . .                          .. . .
C-----------------------------------------------------| 4X
F-00-00-0-0-0-00-00-00--00-00-00-00-00----------------|ON THE THERD TIME DO
C-00-00-0-0-0-00-00-00--00-00-00-00-00-887755445544---|A LIGHT PALM MUTE
  .. .. . . . .. .. ..  .. .. .. .. ..
THEN GO BACK TO VERSE 3 THEN INTRO THERE IT IS
Добавлено: 22.08.2013
Другие материалы по этой песне:
  • Аккорды и текст

Страница создана 22.08.2013
http://primanota.ru/miss-may-i/apologies-are-for-the-weak-chords.htm
Привет, Гость.
Предлагаем пройти революционный курс по гитаре.
Подарок от PrimaNota.Ru, забирай!