PrimaNota.ru - самый крупный в мире бесплатный архив песенных текстов, аккордов, табулатур и нот


Miss Angie - Sun - таба, видео

Регистрация Запомнить меня
Войти через:  Facebook Google Twitter Vk Yandex Mail.ru

Miss Angie - Sun - таба, видео

Печатать
Просмотров: 68
		   Song: Sun
Artist: Miss Angie
Album: 100 Million Eyeballs
       (c)Myrrh Records
Tabbed by Bryan (baxe@misi.net)


[R1]
e|---------|--------------------|
B|---------|--------------------|
G|---------|--9-11-12-11-9-7-9--|
D|--777----|--------------------|
A|--777----|--7-9--10-9--7-5-7--|
E|--555----|--------------------|
  (guitar1)     (guitar2)

-=-=-=-=-=-=-=-=-=-=-=-=-=-=-=-=-=-=-=-=-=-=-=-=-=-=-=-=-=-=-

[Intro]
e|----------------------|     |----------------------|
B|----------------------|     |----------------------|
G|----------------------|     |----------------------|
D|--444--222------------| or  |----------------------|  (2x)
A|--222--000--222--444--|     |--222--000------------|
E|------------000--222--|     |------------000--222--|

[Verse1]
e|------------------------------------------| 
B|------------------------------------------| 
G|------------------------------------------| 
D|--444--222------------444--222------------| 
A|--222--000--222--444--222--000--222--444--| 
E|------------000--222------------000--222--| 
(each line is a complete cycle of this)

All  men  are  like grass  like grass
And their glory fades away away
The flowers fall The grass wilts
The breath of the Lord it blows it blows

[Bridge]
e|----0--------0--------0------|
B|----0--------0--------0------|
G|-----------------------------|
D|--4---444--5---555--7---777--|
A|--4---444--5---555--7---777--|
E|--2---222--3---333--5---555--|
(each line is a complete cycle of this)

       [r1]
You will pass away 
                [r1]
but His word will stay


[Chorus]
     B      Eb      A      E
e|------------------------------|
B|------------------------------|
G|---------88888---------99999--|
D|--99999--88888--77777--99999--|
A|--99999--66666--77777--77777--|
E|--77777---------55555---------|

B           Eb        A   E                                         
His love is like the sun It always comes
B           Eb        A   E                                         
His love is like the sun It always comes
B 	    Eb        A   E                
His love is like the sun, the sun


[Fill]
e|-------------------------------------| 
B|-------------------------------------| 
G|-------------------------------------| 
D|--444--222------------444--222-------| 
A|--222--000--222--444--222--000--222--| 
E|------------000--222------------000--| 


[Verse2]
e|------------------------------------------| 
B|------------------------------------------| 
G|------------------------------------------| 
D|--444--222------------444--222------------| 
A|--222--000--222--444--222--000--222--444--| 
E|------------000--222------------000--222--| 
(each line is a complete cycle of this)

Here one day Gone tomarrow Gone tomarrow
Your life is like a breath in the wind

[Bridge]

[Chorus]

[Solo]

[Chorus] 2x     
Добавлено: 23.11.2013
Другие материалы по этой песне:
  • Аккорды и текст

Страница создана 23.11.2013
http://primanota.ru/miss-angie/sun-chords.htm
Привет, Гость.
Предлагаем пройти революционный курс по гитаре.
Подарок от PrimaNota.Ru, забирай!