PrimaNota.ru - самый крупный в мире бесплатный архив песенных текстов, аккордов, табулатур и нот


Miss Angie - Hands - таба, видео

Регистрация Запомнить меня
Войти через:  Facebook Google Twitter Vk Yandex Mail.ru

Miss Angie - Hands - таба, видео

Печатать
Просмотров: 114
		   Song: Hands
Artist: Miss Angie
Album: 100 Million Eyeballs
       (c)Myrrh Records
Tabbed by Bryan (baxe@misi.net)

[Riff1]
e|-------------------------|
B|-------------------------|
G|-------------------------|
D|--7--12--12--12b--10--8--|
A|--7--12--12--------------|
E|--5--9---10--------------|

[Riff2]
e|----------------------|
B|----------------------|
G|--9--7--9---9--7--10--|
D|----------------------|
A|--7--5--11--7--5--12--|	
E|----------------------|

[Intro]
-riff1- 2x

[Verse1]
-riff2- 8x
I cant go back
I wont go back
Cause with you I am dead
I cant go back
I wont go back
Cause with you I am trash

[Chorus]
-riff1-
In your hands
In your hands
Die to what I am
(repeat)

[Verse2]
-riff2- 8x
I cant go back
I wont go back
Cause with you I can live
I cant go back
I wont go back
Cause with you I dont lack

[Chorus]

D|--12b--10--8--|
Die to what I

D|--12b--10--8--|
Die to what I

??
My life is hidden now
??
My life is hidden now

[Chorus] 4x

D|--12b--10--8--|
Die to what I

D|--12b--10--8--|
Die to what I
     
Добавлено: 26.09.2013
Вам также может быть интересно:
Другие материалы по этой песне:
  • Аккорды и текст

Страница создана 26.09.2013
http://primanota.ru/miss-angie/hands-chords.htm
Привет, Гость.
Предлагаем пройти революционный курс по гитаре.
Подарок от PrimaNota.Ru, забирай!