PrimaNota.ru - самый крупный в мире бесплатный архив песенных текстов, аккордов, табулатур и нот


Miss Angie - Free - таба, видео

Регистрация Запомнить меня
Войти через:  Facebook Google Twitter Vk Yandex Mail.ru

Miss Angie - Free - таба, видео

Печатать
Просмотров: 88
Уроки эстрадного вокала в Санкт-Петербурге
		   Song: Free
Artist: Miss Angie
Album: 100 Million Eyeballs
       (c)Myrrh Records
Tabbed by Bryan (baxe@misi.net)



[Chorus_Riff]
e|--------|------------/------------|
B|--------|------------/------------|
G|--------|------------/---6-12--9--|
D|--5--2--|--6--12--9--/------------|
A|--5--2--|--4--10--7--/---4-10--7--|
E|--3--0--|------------/------------|
             (guitar1)     (guitar2)


-------------------------------------------------------



[Intro]
                                                *
D|-------------------------------------------------|
A|--6-----6-----7-----7-----8-----8-----9-----9----| (2x)
E|-----0-----0-----0-----0-----0-----0-----0------0|


e|------------------------------|
B|--19--16--19--16--16--14--12--| (played at the "*" second time through)
G|------------------------------|


[Verse1]
D|-------------------------------------------------|
A|--6-----6-----7-----7-----8-----8-----9-----9----|
E|-----0-----0-----0-----0-----0-----0-----0-----0|
    Ive never seen you Never touched you Never never no
    But I believe in your Son
(repeat)


[Bridge]


B|---------------------------|
G|--11--11b--11--7--7--7--7--|  (2x)
D|---------------------------|


   A5-D5-C5   (2x)


[Chorus]


-chorus_riff-
You make me free
Yeah you do
Yeah you do
(repeat)


                                                *
D|-------------------------------------------------|
A|--6-----6-----7-----7-----8-----8-----9-----9----| (2x)
E|-----0-----0-----0-----0-----0-----0-----0------0|


e|------------------------------|
B|--19--16--19--16--16--14--12--| (played at the "*" second time through)
G|------------------------------|


[Verse2]
D|-------------------------------------------------|
A|--6-----6-----7-----7-----8-----8-----9-----9----|
E|-----0-----0-----0-----0-----0-----0-----0------0|
   There is no hope in me in me Oh no oh no oh no
   At Jesus' feet I fall
(repeat)


[Bridge]


[Chorus]


C#5            A5
Im captive but free
                E5
Im a slave unto the
          D5
Its not a dream
C#5     A5
    F-R-E-E
                   E5
Your word makes me free
          D5
Its not a dream


[Verse1]


[Solo]


B|---------------------------------------------|
G|--12b--12--9--12b--12--9--12b--12--9--9b--9--|  (2x)
D|---------------------------------------------|
  (rythm of solo is -chorus_riff-)


[Chorus]



[Ending]


B|--------------------------------------------|
G|--12b--12--9--9--9--9--12b--12--9--9--9--9--|
D|--------------------------------------------|


D|-----------------------------------------|
A|--6-----6-----7-----7-----8-----8-----9--|
E|-----0-----0-----0-----0-----0-----0-----|



well, here it is, the complete song.  Im not very good at the actual
lead parts, but you got my best guess.     
Добавлено: 13.10.2013
Другие материалы по этой песне:
  • Аккорды и текст

Страница создана 13.10.2013
http://primanota.ru/miss-angie/free-chords.htm
Привет, Гость.
Предлагаем пройти революционный курс по гитаре.
Подарок от PrimaNota.Ru, забирай!