PrimaNota.ru - самый крупный в мире бесплатный архив песенных текстов, аккордов, табулатур и нот


Mishka - Shadow In The Shade - аккорды и текст, видео

Регистрация Запомнить меня
Войти через:  Facebook Google Twitter Vk Yandex Mail.ru

Mishka - Shadow In The Shade - аккорды и текст, видео

Печатать
Просмотров: 188
Shadow In The Shade
Mishka
-------------------------------------------------------------------------------
                             SHADOW IN THE SHADE - Mishka
-------------------------------------------------------------------------------
Tabbed by: Andri

Tuning: Standard

Intro and Verse:

    B   C#m  F#    E    B
|---7----4----9----7----7--|
|---7----5---11----9----7--|
|---8----6---11----9----8--|
|---9----6---11----9----9--|
|---9----4----9----7----9--|
|---7----x----x----x----7--|

Chorus:
E  B  F#  E  B
Добавлено: 02.03.2012
Другие материалы по этой песне:
  • Аккорды и текст

Страница создана 02.03.2012
http://primanota.ru/mishka/shadow-in-the-shade-chords.htm
Привет, Гость.
Предлагаем пройти революционный курс по гитаре.
Подарок от PrimaNota.Ru, забирай!