PrimaNota.ru - самый крупный в мире бесплатный архив песенных текстов, аккордов, табулатур и нот


Misery Signals - Two Solitudes - таба, видео

Регистрация Запомнить меня
Войти через:  Facebook Google Twitter Vk Yandex Mail.ru

Misery Signals - Two Solitudes - таба, видео

Печатать
Просмотров: 103
Уроки эстрадного вокала в Санкт-Петербурге
-------------------------------------------------------------------------------
                          Two Solitudes - Misery Signals
-------------------------------------------------------------------------------
Tabbed by: Kristyn Lee
E-mail: spot_the_village_loony_836@hotmail.com

Tuning: Drop C

Intro/verse

0:01    
D|-------------------------------------------------------0~----|
A|-------------------------------------------------------0~----|
F|-------------------------------------------------------0~----|
C|---444444------44-2/44-2/4444444------4-2/44-4-7-7-10--------|
G|---xxxxxx-xxxx-xx-x-xx-x-xxxxxxx-xxxx-x-x-xx-x-x-x-x---------|
C|---444444-xxxx-44-2/44-2/4444444-xxxx-4-2/44-4/7-7/10--------|

D|-------------------------------------------------------|
A|-------------------------------------------------------|
F|---------------------------------------4---------------|
C|---2/4------4-2/4-4-2/4--0h4h6h7-4h6h7----5555/9999----|
G|---x-x-xxxx-x-x-x-x-x-x-------------------xxxx-xxxx----|
C|---2/4-xxxx-4-2/4-4-2/4-------------------5555/9999----|

D|------------------------------0~-----------------------0~---|
A|------------------------------0~-----------------------0~---|
F|------------------------------0~-----------------------0~---|
C|---444444------4-2/4-4-2/4/7-----44444-2/4-4-4/7-7/10-------|
G|---xxxxxx-xxxx-x-x-x-x-x-x-x-----xxxxx-x-x-x-x-x-x-x--------|
C|---444444-xxxx-4-2/4-4-2/4/7-----44444-2/4-4-4/7-7/10-------|

D|-----------------------------------------------------|
A|-----------------------------------------------------|
F|-------------------------------------4---------------|
C|---44------4-2/4-4-2/4-0h4h6h7-4h6h7----5555/9999----|
G|---xx-xxxx-x-x-x-x-x-x------------------xxxx-xxxx----|
C|---44-xxxx-4-2/4-4-2/4------------------5555/9999----|

0:23
D|----------------------------------0000~--------------|
A|----------------------------------5555~--------------|
F|----------------------------------4444~--------------|
C|-----------------------------------------------------|
G|---4444444-4-44444-4444444-444444--------------------|
C|---4444444-4-44444-4444444-444444--------------------|
     ....... . ..... ....... ......
0:28
D|--------------------0~------|
A|------------0---------------|
F|--------3-----3---3---------|   x4
C|------4---4-----4-----------|
G|----------------------------|
C|---4------------------------|

0:50
D|---4~-4~-4~----------------------------------------------------|
A|---5~-5~-5~----------------------------------------------------|
F|---x--x--x---------------------------------6-6-----------------|
C|---4~-4~-4~------------------------4-4-7-4-x-x-----------------|
G|---4~-4~-4~--4444-4-4444-4-4-4-444-2-2-5-2-4-4--4-5-5p4-0h4----|
C|---4~-4~-4~--4444-4-4444-4-4-4-444--------------4-5-5p4-0h4----|
               ....   .... . . . ...

D|-------------------------------------------------|
A|--------------------------10---------------------|
F|-------4~----------6h7h9-------7/9\7-6~----------|
C|---4h7-----7p4-7---------------------------------|
G|-------------------------------------------------|
C|-------------------------------------------------|

0:59
D|---4~-4~-4~-------------------------------------------|
A|---5~-5~-5~-------------------------------------------|
F|---x--x--x---------------------------------6-6-6-6----|
C|---4~-4~-4~------------------------4-4-7-4-x-x-x-x----|
G|---4~-4~-4~--4444-4-4444-4-4-4-444-2-2-5-2-4-4-4-4----|
C|---4~-4~-4~--4444-4-4444-4-4-4-444--------------------|
               ....   .... . . . ...

Quiet part

1:07
 one guitar plays this                     
D|------------0~--|    
A|-----10---------|    
F|---7----7\6-----|x10 
C|----------------|    
G|----------------|   
C|----------------| 
other guitar plays this
     t   t   t   t   t   t
D|---14--16--21--22--17--16---|
A|----------------------------|
F|----------------------------|
C|----------------------------|
G|----------------------------|
C|----------------------------|

1:19
D|-------------------------------------------------------0~----|
A|-------------------------------------------------------0~----|
F|-------------------------------------------------------0~----|
C|---444444------44-2/44-2/4444444------4-2/44-4-7-7-10--------|
G|---xxxxxx-xxxx-xx-x-xx-x-xxxxxxx-xxxx-x-x-xx-x-x-x-x---------|
C|---444444-xxxx-44-2/44-2/4444444-xxxx-4-2/44-4/7-7/10--------|

D|-------------------------------------------------------|
A|-------------------------------------------------------|
F|---------------------------------------4---------------|
C|---2/4------4-2/4-4-2/4--0h4h6h7-4h6h7----5555/9999----|
G|---x-x-xxxx-x-x-x-x-x-x-------------------xxxx-xxxx----|
C|---2/4-xxxx-4-2/4-4-2/4-------------------5555/9999----|

D|------------------------------0~-----------------------0~---|
A|------------------------------0~-----------------------0~---|
F|------------------------------0~-----------------------0~---|
C|---444444------4-2/4-4-2/4/7-----44444-2/4-4-4/7-7/10-------|
G|---xxxxxx-xxxx-x-x-x-x-x-x-x-----xxxxx-x-x-x-x-x-x-x--------|
C|---444444-xxxx-4-2/4-4-2/4/7-----44444-2/4-4-4/7-7/10-------|

D|-----------------------------------------------------|
A|-----------------------------------------------------|
F|-------------------------------------4---------------|
C|---44------4-2/4-4-2/4-0h4h6h7-4h6h7----5555/9999----|
G|---xx-xxxx-x-x-x-x-x-x------------------xxxx-xxxx----|
C|---44-xxxx-4-2/4-4-2/4------------------5555/9999----|

1:42
D|--------------------------------------------------------------------------|
A|--------------------------------------------------------------------------|
F|------11-11-111111-11-11-111111-11-11-111111-44/6-------------------------|
C|------x--x--x-x-x--x--x--x-x-x--x--x--x-x-x--xx-x-------------------------|
G|---00-9--9--9-9-9--9--9--9-9-9--9--9--9-9-9--22/4--1111-2222-1111-5555----|
C|---00----------------------------------------------4444-4444-4444-4444----|

D|-----------------------------------------------------------------------------------0000~---|
A|-----------------------------------------------------------------------------------5555~---|
F|------11-11-111111-11-11-111111-11-11-111111-44/6----------------------------------4444~---|
C|------x--x--x-x-x--x--x--x-x-x--x--x--x-x-x--xx-x------------------------------------------|
G|---00-9--9--9-9-9--9--9--9-9-9--9--9--9-9-9--22/4--1111111-2-22222-11111111-555555---------|
C|---00----------------------------------------------4444444-4-44444-44444444-444444---------|
                                                     ....... . ..... ........ ......               
D|--------------------------------------------------------------------------|
A|--------------------------------------------------------------------------|
F|------11-11-111111-11-11-111111-11-11-111111-44/6-------------------------|
C|------x--x--x-x-x--x--x--x-x-x--x--x--x-x-x--xx-x-------------------------|
G|---00-9--9--9-9-9--9--9--9-9-9--9--9--9-9-9--22/4--1111-2222-1111-5555----|
C|---00----------------------------------------------4444-4444-4444-4444----|

2:11
D|----------------------------------|
A|----------------------------------|
F|---7777-9999-11111111-121212\11---|
C|---xxxx-xxxx-x-x-x-x--x-x-x--x----|
G|---5555-7777-9-9-9-9--101010\9----|
C|----------------------------------|

2:15
D|------------------------------------0000~--------|
A|------------------------------------5555~--------|
F|------------------------------------4444~--------|
C|-------------------------------------------------|
G|---4444444-4-44444-44444444-4444444--------------|
C|---4444444-4-44444-44444444-4444444--------------|
     ....... . ..... ........ .......
D|------------------------------------0000~--------|
A|------------------------------------5555~--------|
F|------------------------------------4444~--------|
C|-------------------------------------------------|
G|---4444444-4-44444-44444444-4444444--------------|
C|---4444444-4-44444-44444444-4444444--------------|
     ....... . ..... ........ .......
D|------------------------------------0000~--------|
A|------------------------------------3333~--------|
F|------------------------------------2222~--------|
C|-------------------------------------------------|
G|---0000000-0-00000-00000000-0000000--------------|
C|---0000000-0-00000-00000000-0000000--------------|
     ....... . ..... ........ .......
D|------------------------------------0000~--------|
A|------------------------------------5555~--------|
F|------------------------------------4444~--------|
C|-------------------------------------------------|
G|---4444444-4-44444-44444444-4444444--------------|
C|---4444444-4-44444-44444444-4444444--------------|
     ....... . ..... ........ .......

2:33
D|--------------------0~------|
A|------------0---------------|
F|--------3-----3---3---------|   x4
C|------4---4-----4-----------|
G|----------------------------|
C|---4------------------------|
2:57
D|----------------------------|
A|-------0---3----------------|
F|-------------0---0----------|   x2
C|-----5---5-----4------------|
G|----------------------------|
C|---5------------------------|
3:03
D|--------------------0~------|
A|------------0---------------|
F|--------3-----3---3---------|   x4
C|------4---4-----4-----------|
G|----------------------------|
C|---4------------------------|
3:26
D|----------------------------|
A|-------0---3----------------|
F|-------------0---0----------|   x2
C|-----5---5-----4------------|
G|----------------------------|
C|---5------------------------|
3:31
D|--------------------0~------|
A|------------0---------------|
F|--------3-----3---3---------|   x2
C|------4---4-----4-----------|
G|----------------------------|
C|---4------------------------|

3:43
D|------------------------------------------|
A|------------------------------------------|
F|------------------------------------------|
C|------------------------------------------|
G|---000-2-5--0-2-4-5--000-2-5--0-2-4-5-----|
C|---555-5-5--5-5-5-5--555-5-5--5-5-5-5-----|
     ...               ...
3:49
D|-----------------------------------------------------------|
A|------------5---------7--------------------7---5---3-------|
F|-------7------7\4~------7--6h7/9--7p6--------7---6---4/6---|
C|-----5---5----------------------------7--------------------|
G|-----------------------------------------------------------| 
C|---5-------------------------------------------------------|
     .
3:56
D|-------------------------------------------------------|
A|-------------------------------------------------------|
F|---6---6-7p6\3-----------------------------------------|
C|-------------------4---4-5p4---4----4---4-5p4---4------|
G|-------------------------------------------------------|
C|-----4-----------4---4-------4----4---4-------4--------|
       .           .   .       .    .   .       .
4:00
D|----------------------------------------------------------------------------------|
A|----------------------------------------------------------------------------------|
F|----------------------------------------------------------------------------------|  x2
C|---444444444444444444444444444444444444444444444444444444444444444-4-2/4-4-2/4----|
G|---xxxxxxxxxxxxxxxxxxxxxxxxxxxxxxxxxxxxxxxxxxxxxxxxxxxxxxxxxxxxxxx-x-x-x-x-x-x----|
C|---444444444444444444444444444444444444444444444444444444444444444-4-2/4-4-2/4----|
4:11
D|------------------------------------------|
A|------------------------------------------|
F|------------------------------------------|
C|------------------------------------------|
G|---000-2-5--0-2-4-5--000-2-5--0-2-4-5-----|
C|---555-5-5--5-5-5-5--555-5-5--5-5-5-5-----|
     ...               ...
4:17
D|-----------------------------------------------------------------------|
A|-----------------------------------------------------------------------|
F|-----------------------------------------------------------------------|  
C|---4444444444444444444444444444444444444444444444444444444444444444----|
G|---xxxxxxxxxxxxxxxxxxxxxxxxxxxxxxxxxxxxxxxxxxxxxxxxxxxxxxxxxxxxxxxx----|
C|---4444444444444444444444444444444444444444444444444444444444444444----|


D|---------------------------------------------------------|
A|--------------------------------------------------------|
F|--------------------------------------------------------|
C|---------------------------------------------------|
G|-----------------------------------------------------|
C|--------------------------------------------------------|

D|---------------------------------------------------------|
A|--------------------------------------------------------|
F|--------------------------------------------------------|
C|---------------------------------------------------|
G|-----------------------------------------------------|
C|--------------------------------------------------------|

D|---------------------------------------------------------|
A|--------------------------------------------------------|
F|--------------------------------------------------------|
C|---------------------------------------------------|
G|-----------------------------------------------------|
C|--------------------------------------------------------|

D|---------------------------------------------------------|
A|--------------------------------------------------------|
F|--------------------------------------------------------|
C|---------------------------------------------------|
G|-----------------------------------------------------|
C|--------------------------------------------------------|

************************************

| /   slide up
| \   slide down
| h   hammer-on
| p   pull-off
| ~   vibrato
| +   harmonic
| x   Mute note
| b   Bend
| pb  Pre-bend
| br  Bend release
| pbr Pre-bend release
| brb Bend release bend

************************************
Добавлено: 19.10.2015
Другие материалы по этой песне:
  • Аккорды и текст

Страница создана 19.10.2015
http://primanota.ru/misery-signals/two-solitudes-chords.htm
Привет, Гость.
Предлагаем пройти революционный курс по гитаре.
Подарок от PrimaNota.Ru, забирай!