PrimaNota.ru - самый крупный в мире бесплатный архив песенных текстов, аккордов, табулатур и нот


Misery Signals - Failsafe - текст песни, таба, видео

Регистрация Запомнить меня
Войти через:  Facebook Google Twitter Vk Yandex Mail.ru

Misery Signals - Failsafe - текст песни, таба, видео

Печатать
Просмотров: 160
Уроки эстрадного вокала в Санкт-Петербурге
Author/Artist: Misery Signals
Title: The Failsafe
Album: Mirrors
Transcribed by: dart131
Email: squall7686@yahoo.com


Not the whole song, very rough transcription, just to get the idea of the song. Will 
later.

-------------------------------|----------------------------------------------|
-------------------------------|----------------------------------------------|
--------9----9-----9-9-9-------|-----13---------------------------------------|
--------10---10----101010------|-----14---------------------------------------|
--------8----8-----8-8-8--x4---|-----12---x1----------------------------------|
-------------------------------|-----0----------------------------------------|
        Verse

------------------------------------------------------------------------------|
------------------------------------------------------------------------------|
--------121212\101010\999-121212/141414\999----141414-------------------------|
--------x-----------------------------------x2--------------------------------|
--------101010\8-8-8\777--101010/121212\777----121212-------------------------|
------------------------------------------------------------------------------|


------------------------------------------------------------------------------|
--------13p12-----------------------------------------------------------------|
--------------14-12-12h14-----------------------------------------------------|
--------------------------77--777---10p9-------------77---333--555------------|
--------------------------77--777--------10-8-7-8h10-77---333--555------------|
--------------------------77--777--------------------77---333--555------------|


------------------------------------------------------------------------------|
--------13-15-17-13-15-17-----------------------------------------------------|
------------------------------------------------------------------------------|
---------------------------x4-------------------------------------------------|
------------------------------------------------------------------------------|
------------------------------------------------------------------------------|
          Clean Interlude

------------------------------------------------------------------------------|
--------13-------------17-----------------------------------------------------|
----------16----x8--------19----x8--------------------------------------------|
-------------15--------------19-----------------------------------------------|
------------------------------------------------------------------------------|
------------------------------------------------------------------------------|
Добавлено: 26.07.2012
Другие материалы по этой песне:

Страница создана 04.04.2012
http://primanota.ru/misery-signals/failsafe-chords.htm
Привет, Гость.
Предлагаем пройти революционный курс по гитаре.
Подарок от PrimaNota.Ru, забирай!