PrimaNota.ru - самый крупный в мире бесплатный архив песенных текстов, аккордов, табулатур и нот


Misery Index - The Living Shall Envy The Dead - текст песни, таба, видео

Регистрация Запомнить меня
Войти через:  Facebook Google Twitter Vk Yandex Mail.ru

Misery Index - The Living Shall Envy The Dead - текст песни, таба, видео

Печатать
Просмотров: 112
"The Living Shall Envy The Dead"
                     From album: "split w Structure Of Lies"
                     

                            TABULATURE LEGEND:
                   " - tremolo             h - hammer on           
                   ~ - vibrato             \ - slide down
                   p - pull off            / - slide down
                  tr - trill               ^ - pinch harmonics     
                   = - sustained note      b - bend string         
                p.m. - palm muting         t - tapping
                           <> - natural harmonic

TUNING: C# [C#,F#,B,e,g#,c#]

[Riff 1 (x2)]
||--------------------------|-------------------------|-
||o-------------------------|-------------------------|-
||--------------------------|-------------------------|-
||-----------3"-------------|----------3"-------------|-
||o----5"-------5"-2"-------|----5"-------5"-2"-------|-
||--0"----4"----------4"-1"-|-0"----4"----------4"-1"-|-

-|-------------------------|-------------------------|-
-|-------------------------|-------------------------|-
-|-------------------------|----------------4"-------|-
-|----------3"-------------|----------3"-------6"-3"-|-
-|----5"-------5"-2"-------|----5"-------5"----------|-
-|-0"----4"----------4"-1"-|-0"----4"----------------|-

-|-------------------------|-------------------------|-
-|-------------------------|-------------------------|-
-|-------------------------|-------------------------|-
-|----------3"-------------|----------3"-------------|-
-|----5"-------5"-2"-------|----5"-------5"-2"-------|-
-|-0"----4"----------4"-1"-|-0"----4"----------4"-1"-|-

-|-------------------------|--------------------------||
-|-------------------------|-------------------------o||
-|-------------------------|-------------7"-4"--------||
-|----------3"-------------|-------------------6"-3"--||
-|----5"-------5"-2"-------|-------8"-5"-------------o||
-|-0"----4"----------4"-1"-|-7"-4"--------------------||

[Outro]
|-------------------------|-----------------------|
|-------------------------|-----------------------|
|-------------------------|-----------------------|
|-------------------------|----6"-9"-6"----10-7---|
|----------5"-8"-5"----5"-|-8"----------8"-8--5-9-|
|-0"-4"-7"----------7"----|---------------------7-|
|                         |                       |
|-------------------------|-----------------------|
|-------------------------|-----------------------|
|-------------------------|-----------------------|
|-------------------------|----------------10-7---|
|-2-----------------------|----------------8--5-9-|
|-0-----------------------|---------------------7-|
  .

[Riff 2]
|-------------------------|-------------------------|-
|-------------------------|-------------------------|-
|-------------------------|-------------------------|-
|----------------------6"-|----------------------7--|-
|----------5"-8"-5"-------|-8"-5"----------6--9--5--|-
|-0"-4"-7"----------7"----|-------7"-4"-1"-4--7-----|-

-|-------------------------|-------------------------|-
-|-------------------------|-------------------------|-
-|-------------------------|-------------------------|-
-|-------------------------|----6"-9"-6"----10-7-----|-
-|----------5"-8"-5"----5"-|-8"----------8"-8--5--9--|-
-|-0"-4"-7"----------7"----|----------------------7--|-

-|-------------------------|-------------------------|
-|-------------------------|-------------------------|
-|----------------------7"-|-4"----------------------|
-|-------------------------|----6"-3"-------------7--|
-|----------5"-8"-5"-------|----------5"-2"-6--9--5--|
-|-0"-4"-7"----------7"----|----------------4--7-----|

END OF SONG
Добавлено: 26.11.2013
Вам также может быть интересно:
Другие материалы по этой песне:

Страница создана 20.03.2012
http://primanota.ru/misery-index/the-living-shall-envy-the-dead-chords.htm
Привет, Гость.
Предлагаем пройти революционный курс по гитаре.
Подарок от PrimaNota.Ru, забирай!