PrimaNota.ru - самый крупный в мире бесплатный архив песенных текстов, аккордов, табулатур и нот


Misery Index - Retaliate - текст песни, таба, видео

Регистрация Запомнить меня
Войти через:  Facebook Google Twitter Vk Yandex Mail.ru

Misery Index - Retaliate - текст песни, таба, видео

Печатать
Просмотров: 131
Уроки эстрадного вокала в Санкт-Петербурге
TABULATURE LEGEND:
                   " - tremolo             h - hammer on           
                   ~ - vibrato             \ - slide down
                   p - pull off            / - slide down
                  tr - trill               ^ - pinch harmonics     
                   = - sustained note      b - bend string         
                p.m. - palm muting         t - tapping
                           <> - natural harmonic

TUNING: C# [C#,F#,B,e,g#,c#]

[Intro]                     [Riff 1] (x4)
-|--------|-------|        |---------------------------------|
-|--------|-------|        |---------------------------------|
-|--------|-------|        |---------------------------------|
-|-2=====-|-2-----|        |---------------4-2---------------|
-|-2=====-|-2-----|        |-2-3-2-7-6-3-2-2-0-3-2-6-3-6-3-7-|
-|-0=====-|-0-----|        |-0-1-0-5-4-1-0-----1-0-4-1-4-1-5-|

[RIFF 1 with palm muting (x4)] [RIFF 1 (x2)] [RIFF 1 with muted tremolo (x2)]

[Riff 2a (x4)]
-|---------------------------|-[ending 1,3]--------------|
-|---------------------------|---------------------------|
-|---------------------------|---------------9-----10----|
-|---------------5-----4-----|---------------------------|
-|-5/6-----3-----3-----2-----|-5/6-----3-----7-----8-----|
-|-3/4-000-1-000---000---000-|-3/4-000-1-000---000---000-|
       ...   ...   ...   ...       ...   ...   ...   ...
 
-|-[ending 2]----------------|  -|-[ending 4]----------------|
-|---------------------------|  -|---------------------------|
-|---------------5-----7-----|  -|---------------5-----7====-|
-|---------------------------|  -|---------------------------|
-|-5/6-----3-----3-----5-----|  -|-5/6-----3-----3-----5====-|
-|-3/4-000-1-000---000---000-|  -|-3/4-000-1-000---000-------|
       ...   ...   ...   ...           ...   ...   ...

[Riff 3a (x4)]
-|----------------------|-[edning 1,3]-|-[ending 2,4]|
-|----------------------|--------------|-------------|
-|----------------------|--------------|-------------|
-|----------------------|--------------|-------------|
-|---------------2"0"---|--------------|-2-6-3-6-3-7-|
-|-0"1"0"5"4"1"0"----1"-|-0"4"1"4"1"5"-|-0-4-1-4-1-5-|
                                         . . . . . .

[Riff 2b (x4)]
-|---------------------------|-[ending 1,3]--------------|
-|---------------------------|---------------------------|
-|---------------------------|---------------9-----10----|
-|---------------5-----4-----|---------------------------|
-|-5/6-----3-----3-----2-----|-5/6-----3-----7-----8-----|
-|-3/4-000-1-000---000---000-|-3/4-000-1-000---000---000-|
       ...   ...   ...   ...       ...   ...   ...   ...
 
-|-[ending 2]----------------|  -|-[ending 4]----------------|
-|---------------------------|  -|---------------------------|
-|---------------5-----7-----|  -|---------------5-----------|
-|---------------------------|  -|---------------------7====-|
-|-5/6-----3-----3-----5-----|  -|-5/6-----3-----3-----5====-|
-|-3/4-000-1-000---000---000-|  -|-3/4-000-1-000---000-5====-|
       ...   ...   ...   ...           ...   ...   ...



[RIFF 3a (x2)]

[Riff 3b (x2)]
-|----------------------|-[edning 1,3]-|-[ending 2,4]|
-|----------------------|--------------|-------------|
-|----------------------|--------------|-------------|
-|----------------------|--------------|-------------|
-|---------------2"0"---|--------------|-2-6-3-6-3-7-|
-|-0"1"0"5"4"1"0"----1"-|-0"4"1"4"1"5"-|-0-4-1-4-1-5-|
 |                      |              | . . . . . . |
-|----------------------|-[edning 1,3]-|-[ending 2,4]|
-|----------------------|--------------|-------------|
-|----------------------|--------------|-------------|
-|-------7"6"----9"7"---|---6"--6"--7"-|---6"--6"--7"|
-|-7"8"7"----8"7"----8"-|-7"--8"--8"---|-7"--8"--8"--|
-|----------------------|--------------|-------------|

[Riff 4a]
-|-----------------------------|---------------------------|
-|-----------------------------|---------------------------|
-|-----------------------------|---------------------------|
-|--------5"----------5--4-----|-------------10-10-10------|
-|-2"-3"2"---3"2"3"2"-3--2--3--|-7-7--7-------8-8--8-------|
-|--------------------------1--|-5-5--5--[x4]-8-8--8--[x4]-|
 |                             |                           |
-|-----------------------------|---------------------------|
-|-----------------------------|---------------------------|
-|-----------------------------|---------------------------|
-|-4---------5-4-5-4--5--4-----|-------------10-10-10------|
-|-2---------3-2-3-2--3--2--3--|-7-7--7-------8-8--8-------|
-|--------------------------1--|-5-5--5--[x4]-8-8--8--[x4]-|

[Riff 4b]
-|-----------------------------|---------------------------|
-|-----------------------------|---------------------------|
-|-----------------------------|---------------------------|
-|--------------------5--5-----|--------------7-7--7-------|
-|-2"-3"2"5"-3"2"3"2"-3--2--3--|-4-4--4-------8-8--8-------|
-|--------------------------1--|-5-5--5--[x4]---------[x4]-|

[RIFF 4a /both guitars/] [RIFF 4b (1 bar only)]

[Riff 5 (x2)]
-|------------------|----------------------|------------------|
-|------------------|----------------------|------------------|
-|------------------|----------12"---------|------------------|
-|---------9"-------|---10"9"-----10"--10"-|---------9"-------|
-|-----7"----7"--7"-|-8"-----8"------8"----|-----7"----7"--7"-|
-|-5"..--5"----5"---|----------------------|-5"..--5"----5"---|

-|-[ending 1]-------|      -|-[ending 2]-------|
-|------------------|      -|------------------|
-|------------------|      -|------------------|
-|------------------|      -|-----7"------5"---|
-|-----3"------5"---|      -|-------5"------3"-|
-|-1"..--1"3"..--3"-|      -|-3"------1"-------|

[Riff 5a (X2)]
-|------------------|----------------------|------------------|-
-|------------------|----------------------|------------------|-
-|------------------|----------12"---------|------------------|-
-|---------9"-------|---10"9"-----10"--10"-|---------9"-------|-
-|-----7"----7"--7"-|-8"-----8"------8"----|-----7"----7"--7"-|-
-|-5"..--5"----5"---|----------------------|-5"..--5"----5"---|-
 |                  |                      |                  |
-|------------------|----------------------|------------------|-
-|------------------|----------------------|------------------|-
-|------------------|----------12"---------|------------------|-
-|---------9"-------|---10"9"-----10"--10"-|---------9"-------|-
-|-----7"----7"--7"-|-8"-----8"------8"----|-----7"----7"--7"-|-
-|-5"..--5"----5"---|----------------------|-5"..--5"----5"---|-

                                                       [ENDING]
-|-[ending 1]-------|      -|-[ending 2]-------|     -|--------|
-|------------------|      -|------------------|     -|--------|
-|------------------|      -|------------------|     -|--------|
-|------------------|      -|-----7"------5"---|     -|--------|
-|-----3"------5"---|      -|-------5"------3"-|     -|-7777-7-|
-|-1"..--1"3"..--3"-|      -|-3"..----1"..-----|     -|-5555-5-|
 |                  |       |                  |      | .... . |
-|-[ending 1]-------|      -|-[ending 2]-------|     -|--------|
-|------------------|      -|------------------|     -|--------|
-|------------------|      -|-----7"------5"---|     -|--------|
-|-----5"------7"---|      -|-------5"------3"-|     -|--------|
-|-3"..--3"5"..--5"-|      -|-3"..----1"..-----|     -|-7777-7-|
-|------------------|      -|------------------|     -|-5555-5-|
                                                        .... .

END OF SONG 

http://www.miseryindex.swizcorp.com/2006/index1024.htm
Добавлено: 01.06.2012
Другие материалы по этой песне:

Страница создана 19.05.2012
http://primanota.ru/misery-index/retaliate-chords.htm
Привет, Гость.
Предлагаем пройти революционный курс по гитаре.
Подарок от PrimaNota.Ru, забирай!