PrimaNota.ru - самый крупный в мире бесплатный архив песенных текстов, аккордов, табулатур и нот


Misery Index - Pulling Out The Nails - текст песни, таба, видео

Регистрация Запомнить меня
Войти через:  Facebook Google Twitter Vk Yandex Mail.ru

Misery Index - Pulling Out The Nails - текст песни, таба, видео

Печатать
Просмотров: 70
MISERY INDEX - PULLING OUT THE NAILS



   0:01
c#|---------------------------------------|
G#|---------------------------------------|
E |---------------------------------------|
B |---------------------------------------|
F#|-2-3--2-2--2-3--2-3--------------------|
C#|-0-1--0-0--0-1--0-1--7777777777777777--|
    .    .    .    .

   0:03
c#|---------------------------------------|
G#|---------------------------------------|
E |---------------------------------------|
B |---------------------------------------|
F#|-2-3--2-2--2-3--2-3--------------------|
C#|-0-1--0-0--0-1--0-1--6666666666666666--|
    .    .    .    .

   0:05
c#|---------------------------------------|
G#|---------------------------------------|
E |---------------------------------------|
B |---------------------------------------|
F#|-2-3--2-2--2-3--2-3--------------------|
C#|-0-1--0-0--0-1--0-1--5555555555555555--|
    .    .    .    .

   0:07
c#|---------------------------------------|
G#|---------------------------------------|
E |---------------------------------------|
B |---------------------------------------| (Pinch Harmonics)
F#|-2-3--2-2--2-3--2-3--------------------|
C#|-0-1--0-0--0-1--0-1--(4^------------)--|
    .    .    .    .

   0:17
c#|---------------------------------------|
G#|---------------------------------------|
E |---------------------------------------|
B |---------------------------------------|
F#|-2-3--2-2--2-3--2-3--------------------|
C#|-0-1--0-0--0-1--0-1--4444444444444444--|
    .    .    .    .

   0:19
c#|---------------------------------------|
G#|---------------------------------------|
E |---------------------------------------|
B |---------------------------------------|
F#|-2-3--2-2--4-3--2-3--------------------|
C#|-0-1--0-0--2-1--0-1--7777777777777777--|
    .    .    . .  .

   0:22
c#|---------------------------------------|
G#|---------------------------------------|
E |---------------------------------------|
B |---------------------------------------|
F#|-2-3--2-2--4-3--2-3--------------------|
C#|-0-1--0-0--2-1--0-1--6666666666666666--|
    .    .    . .  .

   0:24
c#|---------------------------------------|
G#|---------------------------------------|
E |---------------------------------------|
B |---------------------------------------|
F#|-2-3--2-2--4-3--2-3--------------------|
C#|-0-1--0-0--2-1--0-1--5555555555555555--|
    .    .    . .  .

   0:26
c#|---------------------------------------|
G#|---------------------------------------|
E |---------------------------------------|
B |---------------------------------------|
F#|-2-3--2-2--4-3--2-3--------------------|
C#|-0-1--0-0--2-1--0-1--4444444444444444--|
    .    .    . .  .

   0:29
c#|----------------------------------|
G#|----------------------------------|
E |----------------------------------|
B |-----5555------------3333---------|
F#|---------6666------------22223333-|
C#|-3333--------55551111-------------|


   0:29 (continued)
c#|-----------------------------------|
G#|-----------------------------------|
E |-------------------------3333------|
B |-----5555------------3333----3333--|
F#|---------6666----------------------|
C#|-3333--------55551111--------------|


   0:48
c#|--------------------------------------------------------------|
G#|--------------------------------------------------------------|
E |--------------------------------------------------------------|
B |--------------------------------------------------------------|
F#|---------5555--------6666--------5555------------33332222-6-8-|
C#|-00002233----00002233----00002233----000011114444---------4-6-|


   0:48 (continued)
c#|---------------------------------------------------------------|
G#|---------------------------------------------------------------|
E |---------------------------------------------------------------|
B |---------------------------------88887777----666666666666-8-10-|
F#|---------5555--------666633335555--------8888-------------6-8--|
C#|-00002233----00002233------------------------------------------|


   1:44
c#|--------|
G#|--------|
E |--------|
B |--------| x4
F#|-2------|
C#|-0------|


   1:52
c#|----------|
G#|----------|
E |----------|
B |----------|
F#|-6-5-8-5--|
C#|-4-3-6-3--|


   1:54
c#|-----------------------------------------------------------------|
G#|-----------------------------------------------------------------|
E |-----------------------------------------------------------------|
B |-----------------------------------------------------------------|
F#|-2-2-2-2-2-2-2-2-2-2-2-2-2-2-3---2-2-2-2-2-2-2-2-2-2-2-2-2-2-6---|
C#|-0-0-0-0-0-0-0-0-0-0-0-0-0-0-1---0-0-0-0-0-0-0-0-0-0-0-0-0-0-4---|
      . . . . . . . . . . . . .       . . . . . . . . . . . . .

   1:54 (continued)
c#|-----------------------------------------------------------------|
G#|-----------------------------------------------------------------|
E |-----------------------------------------------------------------|
B |-----------------------------------------------------------------|
F#|-2-2-2-2-2-2-2-2-2-2-2-2-2-2-3---2-2-2-2-2-2-2-2-6---5---8---5---|
C#|-0-0-0-0-0-0-0-0-0-0-0-0-0-0-1---0-0-0-0-0-0-0-0-4---3---6---3---|
      . . . . . . . . . . . . .       . . . . . . .

   2:23 (add an open power chord at the end of the last riff)
c#|--------|
G#|--------|
E |--------|
B |--------|
F#|-2------|
C#|-0------|



-END-
Добавлено: 27.07.2013
Другие материалы по этой песне:

Страница создана 25.04.2012
http://primanota.ru/misery-index/pulling-out-the-nails-chords.htm
Привет, Гость.
Предлагаем пройти революционный курс по гитаре.
Подарок от PrimaNota.Ru, забирай!