PrimaNota.ru - самый крупный в мире бесплатный архив песенных текстов, аккордов, табулатур и нот


Misery Index - Multiply By Fire - таба, видео

Регистрация Запомнить меня
Войти через:  Facebook Google Twitter Vk Yandex Mail.ru

Misery Index - Multiply By Fire - таба, видео

Печатать
Просмотров: 68
"Multiply By Fire"
                     From album: "Dissent" EP


                            TABULATURE LEGEND:
                   " - tremolo             h - hammer on
                   ~ - vibrato             \ - slide down
                   p - pull off            / - slide down
                  tr - trill               ^ - pinch harmonics
                   = - sustained note      b - bend string
                p.m. - palm muting         t - tapping
                           <> - natural harmonic

TUNING: C# [C#,F#,B,e,g#,c#]

[Riff 1 (x4)]           [Riff 2 (x2)]
||-------------------||-||--------------------|--------------------||
||o-----------------o||-||o-------------------|-------------------o||
||-------------------||-||--------------------|--------------------||
||-------------------||-||--------------------|--------------------||
||o---------5-4-3-4-o||-||o-------------------|-------------------o||
||--000-000-3-2-1-2--||-||--0"...-3"-2"-1"-2"-|-0"...-5"-3"-2"-3"--||
    ... ... . . . .

[RIFF 1 (x4)]

[Outro A]
|-------------------------------------|-------------------|
|-------------------------------------|-------------------|
|-------------------------------------|-------------------|
|-------------------------------------|-------------------|
|-------------------------------------|-------------------|
|-0"...-3"-2"-1"-2"-0"...-5"-3"-2"-3"-|-0"...-3"-2"-1"-2"-|

-|-------------------------|
-|-------------------------|
-|-------------------------|
-|-------------------------|
-|-4--5--4--3--2--3--5--4--|
-|-2--3--2--1--0--1--3--2--|

[Riff 3 (x2)]
||-----------------------------------|-----------------------------------|
||o----------------------------------|-----------------------------------|
||-----------------------------------|-----------------------------------|
||----------------3------------------|---------------3-------------------|
||o-----3---2-----1---3-----3/4------|-----3---2-----1---3-----3/4-------|
||--0-0-1-0-0-0-0---0-1-0-0-1/2-0-00-|-0-0-1-0-0-0-0---0-1-0-0-1/2-0-00--|
    . .   .   . .   .   . .     . ..   . .   .   . .   .   . .     . ..

-|---------------------------------|----------------------||
-|---------------------------------|---------------------o||
-|---------------------------------|----------------------||
-|---------------3-----------------|----------------------||
-|-----3---2-----1---3-----3/4-----|-2----3----5----4----o||
-|-0-0-1-0-0-0-0---0-1-0-0-1/2-0-0-|-0----1----3----2-----||
   . .   .   . .   .   . .     . .

[Outro B]
|---------------------|
|---------------------|
|---------------------|
|---------------------|
|-2----4----8----7----|
|-0----2----6----5----|

[Riff 4]
|----------------------------------|-----------------------------------|
|----------------------------------|-----------------------------------|
|----------------------------------|-----------------------------------|
|-------3--------------------------|-------3---------------------------|
|-5-----1-----3------------4-5-4-2-|-5-----1-----3------------4-5-3-2--|
|-3-0-0---0-0-1-0-0-44-3-0-2-3-2-0-|-3-0-0---0-0-1-0-0-44-3-0-2-3-1-0--|
    . .   . .   . . .. . . . . . .     . .   . .   . . .. . . . . . .

-|----------------------------------|---------------------------------|
-|----------------------------------|---------------------------------|
-|----------------------------------|---------------------------------|
-|-------3--------------------------|-------3-------------------------|
-|-5-----1-----3------------4-5-4-2-|-5-----1-----3-----5-5-5-4-4-3-3-|
-|-3-0-0---0-0-1-0-0-44-3-0-2-3-2-0-|-3-0-0---0-0-1-0-0-3-3-3-2-2-1-1-|
     . .   . .   . . .. . . . . . .     . .   . .   . .

[RIFF 2 (x2)]

[Outro C]
|-----------------|-----------------|-----------------|-------------|
|-----------------|-----------------|-----------------|-------------|
|-----------------|-----------------|-----------------|-------------|
|-----------------|-----------------|-----------------|-------------|
|-2-2-2-2-5-4-3-4-|-2-2-2-2-5-4-3-4-|-2-2-2-2-5-4-3-4-|-4--5--4--3--|
|-0-0-0-0-3-2-1-2-|-0-0-0-0-3-2-1-2-|-0-0-0-0-3-2-1-2-|-2--3--2--1--|
| . . . . . . . . | . . . . . . . . | . . . . . . . . |             |
|-----------------|-----------------|-----------------|-------------|
|-----------------|-----------------|-----------------|-------------|
|-----------------|-----------------|-----------------|-------------|
|-----------------|-----------------|-----------------|-------------|
|-2-2-2-2-5-4-3-4-|-2-2-2-2-5-4-3-4-|-2-2-2-2-5-4-3-4-|-------------|
|-0-0-0-0-3-2-1-2-|-0-0-0-0-3-2-1-2-|-0-0-0-0-3-2-1-2-|-------------|
  . . . . . . . .   . . . . . . . .   . . . . . . . .

[RIFF 3 (x2)]

[Outro D]
|---------------------|---------------------|---------------------|
|---------------------|---------------------|---------------------|
|---------------------|---------------------|---------------------|
|---------------------|---------------------|---------------------|
|-2----4----8----7----|-2----3----5----4----|-2----4----8----7----|
|-0----2----6----5----|-0----1----3----2----|-0----2----6----5----|


[RIFF 4]

[Riff 5 (x4)]                    [Riff 6 (x4)]
||----------------------------||-||----------------------------------||
||o--------------------------o||-||o--------------------------------o||
||----------------------------||-||----------------------------------||
||----------------------------||-||----------------------------------||
||o-2=========-5-5-5-4-4-3-3-o||-||o-2----------------5-5-5-4-4-3-3-o||
||--0=========-3-3-3-2-2-1-1--||-||--0--0-0-0-0-0-0-0-3-3-3-2-2-1-1--||
                                        . . . . . . .

[Riff 7 (x3)]
||------------------------------------||
||o----------------------------------o||
||------------------------------------||
||------------------------------------||
||o--------------------5-5-5-4-4-3-3-o||
||--000000000000000000-3-3-3-2-2-1-1--||

[Ending]
|----------------------------------|-------*|
|----------------------------------|-------*|
|----------------------------------|-------*|
|----------------------------------|-------*|
|--------------------5-5-5-4-4-3-3-|-2-----*|
|-000000000000000000-3-3-3-2-2-1-1-|-0-----*|
                                     .

END OF SONG
Добавлено: 22.08.2013
Другие материалы по этой песне:

Страница создана 21.08.2013
http://primanota.ru/misery-index/multiply-by-fire-chords.htm
Привет, Гость.
Предлагаем пройти революционный курс по гитаре.
Подарок от PrimaNota.Ru, забирай!