PrimaNota.ru - самый крупный в мире бесплатный архив песенных текстов, аккордов, табулатур и нот


Misconception - Threshold - таба, видео

Регистрация Запомнить меня
Войти через:  Facebook Google Twitter Vk Yandex Mail.ru

Misconception - Threshold - таба, видео

Печатать
Просмотров: 62
Author/Artist: Mis-conception
Title: Threshold
Transcribed By: ((S) Grape fruit juice)


Tuning (E A D G B E), straight pick.

----|-------------------------------------------------------------------------|
----|-----------3-------5------------------------------------------------0----|
----|------------------------------------5-------4---------------2------------|
----|-------------------------------------------------------------------------|
----|-------------------------------------------------------------------------|
----|-5-------------------------3-------------------------0-------------------|

Intro/Verse
               "Strange face             I       know            cor  -  pus
               "Blood   bank             plas  - ma              rest -  ing
               "Gone    to               wall  - men             clim - bing


------------------------------|--|
------------------------------|--|
-----------5--------4---------|--|
------------------------------|--|
------------------------------|--|
---0--------------------------|--|

           thresh   hold.  "
           left     heart. "
           down     felt.  "

----|-------------------------------------------------------------------------|
----|------------3--------5------------------------------------------------0--|
----|----------------------------------------5------4---------------2---------|
----|-------------------------------------------------------------------------|
----|-------------------------------------------------------------------------|
----|-5-----------------------------3-----------------------0-----------------|

  Verse out
                "Still     here               clam - ming           stiff -ness

--------------------------|
-------------0---0-----0--|
----------x--5---4--x--0--|
----------x--x---x--x--0--|
-------------2---2-----0--|
----0--------0---0--------|


             can't  go  "

----|--------------------------------------------------------------------|--|
----|-3-----3--5--3--0--0-----0--0--0--0--0----0-0---0-0----0--0--0---0--|--|
----|-0-----0--0--0--0--4-----4--5--4--0--2----2-2-x-2-2----0--5--4-x-0--|--|
----|-0-----0--0--0--0--0-----0--0--0--0--x----x-x-x-x-x----x--x--x-x-0--|--|
----|-x-----x--x--x--0--5-----5--5--5--0--2----2-2---2-2----2--2--2---0--|--|
----|-5-----5--5--5-----3-----3--3--3--0--0----0-0---0-0----0--0--0---0--|--|

  Chorus

      "on      .                                             I  can't live "
      "aw hawn.                                                            "


----|-------------------------------------------------------------------------|
----|-2---------3-3-0-3---------3-3-0-0---------0-0-0-0---------0-0-0-3-------|
----|-3---x-x-x-x-x-0-0---x-x-x-0-0-0-x---x-x-x-x-x-0-x---x-x-x-x-x-0-x---x-x-|
----|-2---x-x-x-2-2-0-x---x-x-x-x-x-0-2---x-x-x-2-2-0-2---x-x-x-5-4-0-2---x-x-|
----|-x---------x-x-0-5---------5-5-0-2---------2-2-0-2---------2-2-0-x-------|
----|-5---------5-5---3---------3-3-----------------------------0-0---5-------|

  Break

----------------------------------------------------------|
----3-3-0-3---------3-3-0-0---------0-0-0-0---------0-0-0-|
--x-x-x-0-0---x-x-x-0-0-0-x---x-x-x-x-x-0-x---x-x-x-x-x-0-|
--x-2-2-0-x---x-x-x-x-x-0-2---x-x-x-2-2-0-2---x-x-x-5-4-0-|
----x-x-0-5---------5-5-0-2---------2-2-0-2---------2-2-0-|
----5-5---3---------3-3-----------------------------0-0---|



----|-------------------------------------------------------|--|
----|-------------------------------------------------------|--|
----|-2--2--x--1--x--2--x--5--4----4--x--x--5--2--0--2----2-|--|
----|-x--x--x--2--x--x--x--2--2----2--x--x--5--2--0--x----x-|--|
----|-2--2-----2-----2-----2--2----2--------3--3--0--2----2-|--|
----|-------------------------------------------------------|--|

  Bridge

     "And if what they say is true,"
     "Repentance is inside of you,"
     "I'm caught in a stream line above,"


----|-------------------------0-----0--0--0--0--0-----|
----|-------------------------0-----0--0--0--0--0--0--|
----|-2--2--x--1--x--2--x--5--4-----4--4--4--4--4--0--|
----|-x--x--x--2--x--x--x--2--2-----2--2--2--2--2--0--|
----|-2--2-----2-----2-----2--2-----2--2--2--2--2--0--|
----|-------------------------------------------------|

  Bridge Out                                            Chorus Riff

     "Casting away all that is love."


----|-------------------------------------------------------------------------|
----|-------------------------------------------------------------------------|
----|-7----7--7--7--9--7--0----4--4--4--4-h5-4--4------2--2--x--2----2---2--x-|
----|-x----x--x--x--x--x--0----x--x--x--x----x--x--0---x--x--x--x----x---x--x-|
----|-7----7--7--7--7--7--0----5--5--5--5----5--5--0---2--2-----2----2---2----|
----|-5----5--5--5--5--5--0----3--3--3--3----3--3--0---0--0-----0----0---0----|

  Bridge 2
                                                      "Why do you always
                                                      "When nothing is left and

----------------------------|--|
----------------------------|--|
-x--2--2--2--0--5--4--x-----|--|
-x--x--x--x--x--x--x--x--0--|--|
----2--2--2--2--2--2-----0--|--|
----0--0--0--0--0--0-----0--|--|


 disrespect yourself,"
 everything right is gone"


----|------------------------|
----|-3-------0-------0------|
----|-0-------4-------2------|
----|-0-------0-------x------|
----|-x-------5-------2------|
----|-5-------3-------0------|

  Bridge 2 out                Bridge 2 riff

      "gone....."

----|-------------------------------------------------------------------------|
----|--------------------------------------------2-------2-2------------------|
----|-------7----9-----------4h5---4-----------0-----0-------2-2-0---------7--|
----|-------------------------------------------------------------------------|
----|-5----------------3----------------2-----------------------------5-------|
----|-5----------------3----------------0-----------------------------5-------|


  Outro

--------------------------0----------|
--------------------------0----------|
---9---------4h5-4---0----2----------|
--------------------------2----------|
--------3----------3------2----------|
--------3----------3------0----------|

                             Additional Lyrics

Verse 2

Straight face, gasp right, clever past life.
Cape red, night light, corner life like.
Big left, stronghold, stainless, stipends.
I am like you, shoulders, can't go on.
Добавлено: 01.01.2016
Вам также может быть интересно:
Другие материалы по этой песне:
  • Аккорды и текст

Страница создана 01.01.2016
http://primanota.ru/misconception/threshold-chords.htm
Привет, Гость.
Предлагаем пройти революционный курс по гитаре.
Подарок от PrimaNota.Ru, забирай!