PrimaNota.ru - самый крупный в мире бесплатный архив песенных текстов, аккордов, табулатур и нот


Misconception - Desert Seed - таба, видео

Регистрация Запомнить меня
Войти через:  Facebook Google Twitter Vk Yandex Mail.ru

Misconception - Desert Seed - таба, видео

Печатать
Просмотров: 52
#-----------------------------------------------------------------------------#
#-- File created with Instab - http://www.pconline.com/~smcarey/instab.html --#
#-----------------------------------------------------------------------------#

Author/Artist: Mis-conception
Title: Desert Seed
Transcribed By: Ghost


Tuning (E A D G B E), straight pick.
Live Tuning (eb A D f# a d)


----|-----------------------------------------|--|----------------------|
----|-5--5-5--5-5-5-6-6--6-6--6-6-5-5--5--5-5-|--|-9-9-9-12-12-12-12-12-|
----|-4--4-4--4-4-4-4-4--4-4--4-4-4-4--4--4-4-|--|-x-x-x-x--x--x--x--x--|
----|-6--6-6--6-6-6-6-6--6-6--6-6-6-6--6--6-6-|--|-6-6-6/9--9--9--9--9--|
----|-7--7-7--7-7-7------8-8--8-8-7-7--7--7-7-|--|----------------------|
----|-----------------------------------------|--|----------------------|
                                                   End 1
  Intro


----|------------------|
----|-9-9-9-4-4-4-4-4--|
----|-x-x-x-x-x-x-x-x--|
----|-6-6-6\4-4-4-4-4--|
----|------------------|
----|------------------|

     End 2



----|----------------------------------------------------------|--|
----|-5--5-5--5-5-5--6-6--6-6--6-6--5-5--5--5-5-5-5-5--5-5-5-5-|--|
----|-4--4-4--4-4-4--4-4--4-4--4-4--4-4--4--4-4-4-4-4--4-4-4-4-|--|
----|-6--6-6--6-6-6--6-6--6-6--6-6--6-6--6--6-6-6-6-6--6-6-6-6-|--|
----|-7--7-7--7-7-7-------8-8--8-8--7-7--7--7-7-7-7-7--7-7-7-7-|--|
----|----------------------------------------------------------|--|

             "In the desert         sun,"
  Verse      "Silence eats its      young,"
             "Cause there's something cruel,"
             "In this thing called you."




----|----------------------------------------|
----|-3--3--3-3--3--3--3--3------------------|
----|-0--0--0-0--0--0--1--3--2/3\-2----------|
----|-x--x--x-x--x--x--x--x------------------|
----|-5--5--5-5--5--5--2--2----------8p5-5---|
----|----------------------------------------|

  Chorus  "Where do you
             have all your fun,"
          "In your picture
                   of greed,"

----|-----------------------------------------|
----|-2--2--2-2-2--2-----3-3------------------|
----|-0--0--0-0-0--0--1--1-1--1-1--1-1--1-1-1-|
----|-x--x--x-x-x--x--x--x-x--x-x--x-x--x-x-x-|
----|-5--5--5-5-5--5--2--2-2--2-2--2-2--2-2-2-|
----|-3--3--3-3-3--3--------------------------|

       "When it's all
                in love."
       "I'm a desert seed..."




----|----------------------------------------------------------------|--|
----|----------------------------------------------------------------|--|
----|---x-----------------------------x------------------------------|--|
----|---x-----------------------------x------------------------------|--|
----|-7---7--7-7--5--5-5--2--2-5-2-7----7--7-7--5--5-5--10--10-10-10-|--|
----|-0---0--0-0--0--0-0--0--0-0-0-0----0--0-0--0--0-0--0---0--0--0--|--|

  Interlude


----|---------------------------------------------------------------------------|
----|-----------------------------------------------------------9----9-------9--|
----|----x-9--9--x--7--7--x--4--4---4------x--9--9--x--7--7--x--7----7-------7--|
----|-6--x-6--6--x--6--6--x--6-------------x--6--6--x--6--6--x--6----6---6---6--|
----|-7---------------------------5---5/7--------------------------------7------|
----|---------------------------------------------------------------------------|


   "I just wanna live for today.   Indulge in myself if that's ok.
I don't want to hurt anyone, under this desert sun.  But if it's plain to see.
That your my enemy.  Stop on by for a while.  And we'll take care of this now. "



----|-------------------------------------------------------------------------|
----|--------------3--3--3-------------------------------------------------3--|
----|----------x-x-2--2--2--x-x-----------x-x--------------------------x-x-2--|
----|----------x-x----------x-x-----------x-x--------------------------x-x----|
----|-2--2--2--------------------2--2--2-------2--2--2-2-2-2--2--2--2---------|
----|-------------------------------------------------------------------------|
     "In the......     desert........    sun."                            "In the

   Bridge


--------------------------------------------------------------------------------------------------------------|
3--3-------3--3--3--3--3--3--3--------------------3--3--3-----5--5--5--5--5--5--5---------------3--3--3-----5-|
2--2--x-x--4--4--4--4--4--4--4--x-x----------x-x--2--2--2--x--4--4--4--4--4--4--4----------x-x--2--2--2--x--3-|
------x-x-----------------------x-x----------x-x-----------x-------------------------------x-x--------3--x--2-|
------------------------------------2--2--2---------------------------------------2--2--2---------------------|
--------------------------------------------------------------------------------------------------------------|
   desert...   sun."                     "In the...      desert...     sun."
Добавлено: 20.06.2016
Вам также может быть интересно:
Другие материалы по этой песне:
  • Аккорды и текст

Страница создана 20.06.2016
http://primanota.ru/misconception/desert-seed-chords.htm
Привет, Гость.
Предлагаем пройти революционный курс по гитаре.
Подарок от PrimaNota.Ru, забирай!