PrimaNota.ru - самый крупный в мире бесплатный архив песенных текстов, аккордов, табулатур и нот


Mischief Brew - Love And Rage - таба, видео

Регистрация Запомнить меня
Войти через:  Facebook Google Twitter Vk Yandex Mail.ru

Mischief Brew - Love And Rage - таба, видео

Печатать
Просмотров: 107
e|-------------------------------------2--0---------------------|
B|-------------------------------------3--0---------------------|
G|-------------------------------------2--0---------------------|
D|---------------0h2-0--------0---0---0---2---------------------|
A|--------0-2-3-----------0h2---0-----0---2---------------------|
E|-3--3-----------------3----------------0---0h2p0-3--3---------|

e|---------------------------3--------|
B|--------------------------3-3-------|
G|------------0-------0--2----0-------|
D|------------0h2----0-------0---0----|
A|-0-2p0--3----------------------X----|
E|----------------------3--------3----|

G              C                  G                  D             Em
Love, love and rage. "Soon be the day," sang as they swayed in the pew, sang with
G              C                  G             D            G
Love, love and rage. "Soon be the day," as they joined up to pray.
  C                     D      D         G                  C
I think of the power of song ... and the history it brings along,
          Em         Am             C             D
And I can almost see sights of some hot, Southern nights,
               Am              C              D        G
Through blood, rain, tears and shine, they'd unite and fight,
     G              C                  G                  D             Em
With love, love and rage. "Soon be the day," sang as they swayed in the pew, sang with
G              C                  G             D            G
Love, love and rage. "Soon be the day," as they joined up to pray.
    C                       D      D   G                          C
I'm hearing some old singer sing ... a song that our tale-tellers bring.
Em          Am                   C             D
It has been sung through cracked jaws, swollen tongues,
        Am         C                D           G
In the land of the free, where they say freedom rings,
     G              C                  G                  D             Em
With love, love and rage. "Soon be the day," sang as they swayed in the pew, sang with
G              C                  G             D            G
Love, love and rage. "Soon be the day," as they joined up to pray.

     G           Am          Em          G
e|---3-----------0---0-0-0-0-0---0-0-0-0-3---3-3-3-3---|
B|---3-----------1---1-1-1-1-0---0-0-0-0-3---3-3-3-3---|
G|---0---2---4---2---2-2-2-2-0---0-0-0-0-0---0-0-0-0---| (x4)
D|---0---0---0---2---2-2-2-2-2---2-2-2-2-0---0-0-0-0---|
A|---X-----------0---0-0-0-0-2---2-2-2-2-X---X-X-X-X---|
E|---3-----------------------0---0-0-0-0-3---3-3-3-3---|

   C                      D    D       G                         C
So now that I see where I am ... I see race still determines the blessed from the damned,
        Em          Am     C       D        Am            C         D             G        D
And the greatest of all historical shams is believing you cannot do something you can.
        G              C                  G                  D             Em
So it's love, love and rage. "Soon be the day," sang as they swayed in the pew, sang with
G              C                  G             D            G      D
Love, love and rage. "Soon be the day," as they joined up to pray.
         G              C                  G                 D    Em
And it's love, love and rage. "Soon be the day," sang as they swayed...
G              C                      G             D            G
Love, love and rage. ... "Soon be the day," as they joined up to pray.

     G           Am          Em          G
e|---3-----------0---0-0-0-0-0---0-0-0-0-3---3-3-3-3---|
B|---3-----------1---1-1-1-1-0---0-0-0-0-3---3-3-3-3---|
G|---0---2---4---2---2-2-2-2-0---0-0-0-0-0---0-0-0-0---|
D|---0---0---0---2---2-2-2-2-2---2-2-2-2-0---0-0-0-0---|
A|---X-----------0---0-0-0-0-2---2-2-2-2-X---X-X-X-X---|
E|---3-----------------------0---0-0-0-0-3---3-3-3-3---|

     G           Am          Em          G
e|---3-----------0---0-0-0-0-0---0-0-0-0-3-------------|
B|---3-----------1---1-1-1-1-0---0-0-0-0-3-------------|
G|---0---2---4---2---2-2-2-2-0---0-0-0-0-0-------------|
D|---0---0---0---2---2-2-2-2-2---2-2-2-2-0-------------|
A|---X-----------0---0-0-0-0-2---2-2-2-2-X-------------|
E|---3-----------------------0---0-0-0-0-3-------------|
Добавлено: 30.07.2013
Другие материалы по этой песне:
  • Аккорды и текст

Страница создана 30.07.2013
http://primanota.ru/mischief-brew/love-and-rage-chords.htm
Привет, Гость.
Предлагаем пройти революционный курс по гитаре.
Подарок от PrimaNota.Ru, забирай!