PrimaNota.ru - самый крупный в мире бесплатный архив песенных текстов, аккордов, табулатур и нот


Misc - Spanish Carrida - аккорды и текст, таба, видео

Регистрация Запомнить меня
Войти через:  Facebook Google Twitter Vk Yandex Mail.ru

Misc - Spanish Carrida - аккорды и текст, таба, видео

Печатать
Просмотров: 241
Spanish Carrida
Misc
|------------------------|
|~SPANISH CARRIDA~       |
|Tabbed by  ~TABSHAMAN~  |
|TABSHAMAN@WEB.DE        |
|------------------------|
Take an acousitc guitar, with nylon strings and tune the guitat 12 a step down. Now shake out your fingers a bit and playthis very fast(hope u play good):
  E         F          G       F        E          E7
1-0-1-3-1-0------------------------------------|------0--|
2-----------3-1-3-1-0---0---0------------------|-----3---|
3---------------------2---2----1---1---1-------|----1----|
4--------------------------------3---3---2-0-2-|---2-----|
5----------------------------------------------|--2------|
6----------------------------------------------|-0-------|
   E       F           G       E7       G         E7
1----------------------------------------------|---0-----|
2-0-1-3-1-0---0---0----------------------------|---3-----|
3-----------2---2---1---1---1------------------|---1-----|
4---------------------3---3---2-0-2------------|---2-----|
5----------------------------------------------|---2-----|
6----------------------------------------------|---0-----|
    Am                                             Am
1----------------------------------------------|--------0|
2--3-1-----------------------------------------|------1--|
3------2-0-2-----------------------------------|----2----|
4----------------------------------------------|--2------|
5----------0-----------------------------------|--0------|
6----------------------------------------------|---------|

Now play these chord like this (d)(u)(d)(u)!!!D!!! (d-light downstroke;u-light upstroke; !!!D!!!-Fast downstroke):
-----------------------------------Am,G,F,E-------------------------------------
And now the main part in the Carrida rythm:
E, F/G F,ERRRRRRRRRRRRRRRRRRRRRRRRRRRRRRRRRIIIIIIIIIIIIIIIIIIIIIIIINNNNNNNNNG!
OLЙ.
Thats it enjoy.
Добавлено: 11.03.2012
Другие материалы по этой песне:
  • Аккорды и текст

Страница создана 11.03.2012
http://primanota.ru/misc/spanish-carrida-chords.htm
Привет, Гость.
Предлагаем пройти революционный курс по гитаре.
Подарок от PrimaNota.Ru, забирай!