PrimaNota.ru - самый крупный в мире бесплатный архив песенных текстов, аккордов, табулатур и нот


Misc - Simple Rhythm Drone - таба, видео

Регистрация Запомнить меня
Войти через:  Facebook Google Twitter Vk Yandex Mail.ru

Misc - Simple Rhythm Drone - таба, видео

Печатать
Просмотров: 53
-----------------------------------------------------------------------------
                             MISC - Rythm Drone
-----------------------------------------------------------------------------

Tuning: Double Drop D (DADGBd)



d|-1p0-0---0-----|         |-333p0-0---0-----|
B|-3---3---3-----|         |-333---3---3-----|
G|-2---2---2-----| x3      |-222---2---2-----| x1
D|-0---0---0-----|         |-000---0---0-----|
A|-0---0---0-----|         |-000---0---0-----|
D|-0---0---0-----|         |-000---0---0-----|

Repeat these in succession desired amount of times. Not difficult at all, but sounds 
interesting. Possibly as part of an intro :)

************************************

| /   slide up
| \   slide down
| h   hammer-on
| p   pull-off
| ~   vibrato
| +   harmonic
| x   Mute note
| b   Bend
| pb  Pre-bend
| br  Bend release
| pbr Pre-bend release
| brb Bend release bend

************************************
Добавлено: 02.10.2013
Другие материалы по этой песне:
  • Аккорды и текст

Страница создана 02.10.2013
http://primanota.ru/misc/simple-rhythm-drone-chords.htm
Привет, Гость.
Предлагаем пройти революционный курс по гитаре.
Подарок от PrimaNota.Ru, забирай!