PrimaNota.ru - самый крупный в мире бесплатный архив песенных текстов, аккордов, табулатур и нот


Misc - Roadrunner United - In The Fire - таба, бас-таба, видео

Регистрация Запомнить меня
Войти через:  Facebook Google Twitter Vk Yandex Mail.ru

Misc - Roadrunner United - In The Fire - таба, бас-таба, видео

Печатать
Просмотров: 162
Intro/Chorus:(0:00) 
Corey:(x2) 
E|----------------------------------------------------------------|| 
B|----------------------------------------------------------------|| 
G|----------------------------------------------------------------|| 
D|----------------------------------------------------------------|| 
A|-777777---5555------------5555---------------------------666666-|| 
E|-----------------888888----------555555---8888----777777--------||
Matt Solo 1:(Tabbed by Shazam)
E|---------------------------------------------8-10b12--------------|| 
B|-/8-7h8p7-----------8-10b12-10~-8h10p8-7-5-4----------------------|| 
G|----------8-7-5~--------------------------------------------------|| 
D|------------------------------------------------------------------|| 
A|------------------------------------------------------------------|| 
E|------------------------------------------------------------------|| 
(0:05) Pretty sure this part is missing notes, fixing later
E|-12p8h12p8----8---------------------------------------------------|| 
B|-----------12---12p8h12p8-----------------------------------------|| 
G|--------------------------12p8\7~-11p7h11p7----7------------------|| 
D|--------------------------------------------11---11p7h11p7--------|| 
A|-----------------------------------------------------------11p7\6~|| 
E|------------------------------------------------------------------|| 
(0:08)
E|---------------------------------------------------------------------|| 
B|----------------------------------------------------------13b15~-----|| 
G|--------------------------------------8-8-11-11--/12~-14~------------|| 
D|----------------------------7-7-10-10--------------------------------|| 
A|-/9-10-7-6~---------6-6-9-9------------------------------------------|| 
E|------------5-5-7-7--------------------------------------------------|| 
(0:13)        . . . . . . . . . .  .  . . .  .  .                         
E|-------------------------------------------------------------------------------------------------14h15h17-15h17h18-20~-|| 
B|-13b15r13p11----------------------------------------------------------------------------14h15h17-----------------------|| 
G|-------------14~-14h15-14-12-11~h12p11-----------------------------------------14h15h17--------------------------------|| 
D|---------------------------------------14~-------------------12h14h15-14h15h17-----------------------------------------|| 
A|----------------------------------------------------12h14h15-----------------------------------------------------------|| 
E|-------------------------------------------12h14h15--------------------------------------------------------------------|| 
(0:20)
E|-20b22r20-19-17-19-19b20r19~22b24r22----------------------------|| 
B|----------------------------------------------------------------|| 
G|----------------------------------------------------------------|| 
D|----------------------------------------------------------------|| 
A|----------------------------------------------------------------|| 
E|----------------------------------------------------------------|| 


Intro 2:(0:11) 
Corey:(this is right, watch DVD) 
E|----------------------------------------------------------------|| 
B|----------------------------------------------------------------|| 
G|----------------------------------------------------------------|| 
D|--------9----7----------10----9-----------5---4-----------------|| 
A|-777777--10----9----------12---10----------7---5---------666666-|| 
E|-----------------888888-----------555555----------777777--------|| 

Verse:(0:23) 
Both Guitars: 
E|--------------------------------------------------------------|| 
B|--------------------------------------------------------------|| 
G|--------------------------------------------------------------|| 
D|-9-------9---------9-------9\8---9-------9--------5555--9999--|| 
A|-7-------7---------7-------7\6---7-------7--------3333--6666--|| 
E|---0-0-0---0-0-0-----0-0-0---------0-0-0---0-0-0--------------|| 
     . . .   . . .     . . .         . . .   . . . 
Verse Part 2: 
E|--------------------------------------------------8888--------|| 
B|--------------------------------------------------xxxx--------|| 
G|--------------------------------------------------5555--------|| 
D|-9-------9---------9-------9\8---9-------9--------------9999--|| 
A|-7-------7---------7-------7\6---7-------7--------------6666--|| 
E|---0-0-0---0-0-0-----0-0-0---------0-0-0---0-0-0--------------|| 
     . . .   . . .     . . .         . . .   . . . 
(x2)

Pre-Chorus:(0:46) 
Corey: 
E|-8/10\8-----8/10\8----10---11----8/10\8-------------------------|| 
B|----------------------------------------------------------------|| 
G|-5/-7\5-----5/-7\5-----7----8----5/-7\5-------------------------|| 
D|-----------------------------------------------10--9--7--6------|| 
A|--------000--------00----0----00--------00000--10--9--7--6------|| 
E|------------------------------------------------8--7--5--4------||
Matt:                                                             ||
E|----------------------------------------------------------------|| 
B|----------------------------------------------------------------|| 
G|-5/-7\5-----5/-7\5-----7----8----5/-7\5-------------------------|| 
D|-7/-9\7-----7/-9\7-----9---10----7/-9\7--------10--9--7--6------|| 
A|--------000--------00----0----00--------00000--10--9--7--6------|| 
E|------------------------------------------------8--7--5--4------|| 

Both Guitars 
Repeat Corey's Intro 1 + 2: 
Repeat Verse: 
Repeat Pre-Chorus: 
Repeat Corey's Intro 1 + 2: 

==========================================================================
SOLO, This is NO easy solo, but what else from Matt and Corey from Trivium

Matt Solo: (2:18) With Wah Cry Baby Pedal
E|----121212--121212-14-15-14-12h14p12------------------------------------------||
B|-12----------------------------------171715b17--12~-12/(15)\10~-10/(12)\7~----||
G|------------------------------------------------------------------------------||
D|------------------------------------------------------------------------------||
A|------------------------------------------------------------------------------||
E|------------------------------------------------------------------------------||

E|---------------------15-------12-------12-------12-------12-------12-12----||
B|-7b88888888~---15b17----15b17----15b17----15b17----15b17----15b17----------||
G|---------------------------------------------------------------------------||
D|---------------------------------------------------------------------------||
A|---------------------------------------------------------------------------||
E|---------------------------------------------------------------------------||

E|-15-15-15-15-15-15-15-17p15p12-------------------15p12-------------12-12---||
B|-------------------------------15p12-12-15p12-12-------15p12---------------||
G|-------------------------------------------------------------14b16---------||
D|---------------------------------------------------------------------------||
A|---------------------------------------------------------------------------||
E|---------------------------------------------------------------------------||

E|-------12-------------12-------------12-------------12-12-15p12------------||
B|----------15p12----------15p12----------15p12-------------------15p12------||
G|-14b16----------14b16----------14b16----------14b16------------------------||
D|---------------------------------------------------------------------------||
A|---------------------------------------------------------------------------||
E|---------------------------------------------------------------------------||

E|---------------------------------------------------------------------------||
B|-15p12--------------------------------------------------------------15b17~-||
G|-------14p12-14p12-14p12-14b16r14p12-----------12----12-14b16r14p12--------||
D|-------------------------------------14~-12-14----14-----------------------||
A|---------------------------------------------------------------------------||
E|---------------------------------------------------------------------------||

E|---------------------------------------------------------------------------||
B|-15b17-15-13-12~-----------------------------------------------------------||
G|-----------------------------------------------------17-19-21-17-19-21-----||
D|-----------------------------------17-19-21-17-19-21-----------------------||
A|-----------------15-17-19-15-17-19-----------------------------------------||
E|---------------------------------------------------------------------------||


e|----------19-20-22-22b24--||
B|-19-20-22-----------------||
G|--------------------------||
D|--------------------------||
A|--------------------------||
E|--------------------------||

^^^
*This Part Tabbed by blackphantom4 and SkateTillDeath* (Edited by SkateTIllDeath)

Corey: (2:41) 
E|------------------------------------------------------------------------------||
B|-------------------------------------12121212-101010--------------------------||
G|-9-9h11p9~--7-9-12-11--9----11b12-9~-----------------12-11-9---9--------------||
D|-------------------------12----------------------------------12-12-10-9-------||
A|------------------------------------------------------------------------12-9*-||
E|------------------------------------------------------------------------------||
(This may not be right)
E|----15h17h19h20p19p17p15----15-----------------------||
B|-17----------------------17----17--------------------||
G|--------------------------------------12-------------||
D|-----------------------------------14----14----------||
A|--------------------------------------------15-14----||
E|--------------------------------------------------12-||

Matt: (2:52)
E|------------------||
B|------10b11-------||
G|-9-12-------------||
D|------------------||
A|------------------||
E|------------------||
 |Corey: (2:52) (DVD)
E|-12-15-17b18\\\\\-||
B|------------------||
G|------------------||
D|------------------||
A|------------------||
E|------------------||

Matt: (2:53) (Watch DVD)            
E|------------10/12-14b15r14b15r14~-15h17p15p12----12-----------------------------------||
B|---------10-----------------------------------15~---15h16p15p12-----------12----------||
G|-9-11-12--------------------------------------------------------14~-14b15----14-12----||
D|-----------------------------------------------------------------------------------14-||
A|--------------------------------------------------------------------------------------||
E|--------------------------------------------------------------------------------------||

E|---------------------------------------------------------------------||
B|-------------------------15b17r15b17---------------------------------||
G|-------12----12-14b15r14-----------------11---11/12\11-9\8/9-11~-12*-||
D|-12-14----14-------------------------9-9----9------------------------||
A|---------------------------------------------------------------------||
E|---------------------------------------------------------------------||
                                       . .    .
Corey: Hard stuff...this will take time
E|----------------------------------------------------------------||
B|----------------------------------------------------------------||
G|----------------------------------------------------------------||
D|----------------------------------------------------------------||
A|----------------------------------------------------------------||
E|----------------------------------------------------------------||
(3:08)
E|----------------------------------------------------------------||
B|----------------------------------------------------------------||
G|----------------11-12--12-11--11-14--14-16~---------------------||
D|-----------------x--x---x--x---x--x---x--x----------------------||
A|-7~--9~-10~-9*~--9/10--10\-9---9/12--12/14~---------------------||
E|----------------------------------------------------------------||

E|----------------------------------------------------------------||
B|----------------------------------------------------------------||
G|----------------------------------------------------------------||
D|----------------------------------------------------------------||
A|----------------------------------------------------------------||
E|----------------------------------------------------------------||
Corey:(3:27)Fun Riff (T = Tap note with whammy bar)
E|----------------------------------------------------------------||
B|------T-T-T--------------------T-T-T----------------------------||
G|-16~-161616-17-16-14\12-1414~-141414-12-11-11b12r11-------------||
D|----------------------------------------------------14-12-14----||
A|----------------------------------------------------------------||
E|----------------------------------------------------------------||

E|-15-14----15\14-10/12--15h19p15-15h17h19p17p15------------------||
B|-------15--------------------------------------19p17p15-19p17p15||
G|----------------------------------------------------------------||
D|----------------------------------------------------------------||
A|----------------------------------------------------------------||
E|----------------------------------------------------------------||

E|----------------------------------------------------------------||
B|----------------------------------------------------------------||
G|-17p16p14-------------------------------------------------------||
D|----------------------------------------------------------------||
A|----------------------------------------------------------------||
E|----------------------------------------------------------------||
(Continued)
E|----------------------------------------------------------------||
B|----------------------------------------------------------------||
G|----------------------------------------------------------------||
D|----------------------------------------------------------------||
A|----------------------------------------------------------------||
E|----------------------------------------------------------------||

Repeat Corey's Intro 1 + 2:

End On:
E|-------------||
B|-------------||
G|-------------||
D|-9\\\\\\\\\--||
A|-7\\\\\\\\\--||
E|-------------||
Добавлено: 08.07.2012
Другие материалы по этой песне:

Страница создана 05.03.2012
http://primanota.ru/misc/roadrunner-united-in-the-fire-chords.htm
Привет, Гость.
Предлагаем пройти революционный курс по гитаре.
Подарок от PrimaNota.Ru, забирай!