PrimaNota.ru - самый крупный в мире бесплатный архив песенных текстов, аккордов, табулатур и нот


Misc - Roadrunner United - Enemy Of The State - таба, видео

Регистрация Запомнить меня
Войти через:  Facebook Google Twitter Vk Yandex Mail.ru

Misc - Roadrunner United - Enemy Of The State - таба, видео

Печатать
Просмотров: 148
Song Title: Enemy Of The State
Band: Roadrunner United
Album: Roadrunner United: The All Stars Session
Tabbed By False_God
Tuning----DADGBe

Ok I've looked around the place trying to find this song but I couldn't find it so I've
decided to do it my self. This song is pretty simple and its cool, Theirs not a lot of
guitar in this song but where there is its kick ass.

So here it is enjoi!!

Into-------Piano


Chorus 00:16 – 00:48
e------------------------------------------------------------| x2
b------------------------------------------------------------|
g------------------------------------------------------------|
d--0---------3~--------5~-------5~--------7~-----------------|
a--0---------3~--------3~-------5~--------5~-----------------|
d –0---------3~------------------5~--------------------------|


Verse 00:48 – 01:19
e----------------------------------------------------------------------| x1
b----------------------------------------------------------------------|
g----------------------------------------------------------------------|
d—0-x16--------3-x16--------5-x16--------5-x8--------7-x8--------------|
a---0--------------3-------------3--------------5------------5---------|
d---0--------------3-----------------------------5---------------------|
 Palm mute every note after 01:05

Chorus 01:19 – 01:49
e------------------------------------------------------------| x2
b------------------------------------------------------------|
g------------------------------------------------------------|
d--0---------3~--------5~-------5~--------7~-----------------|
a--0---------3~--------3~-------5~--------5~-----------------|
d –0---------3~------------------5~--------------------------|

Verse 01:49 – 02:22
e----------------------------------------------------------------------| x1
b----------------------------------------------------------------------|
g----------------------------------------------------------------------|
d—0-x16--------3-x16--------5-x16--------5-x8--------7-x8--------------|
a---0--------------3-------------3--------------5------------5---------|
d---0--------------3-----------------------------5---------------------|
Palm mute every note after 02:07
Break Down-------Drums and Piano


Solo 02:51 – 03:23. For this solo use a lot of phaser and Flanger
e-----5~~~~-------8~~~~~~~----8~~-----8~~-----8~~-----10~~-----10s13~~----12~~--|
b---------------------------------8~-----8~~-----8~~-----8~~-------8~~----------|
g-------------------------------------------------------------------------------|
d-------------------------------------------------------------------------------|
a-------------------------------------------------------------------------------|
d-------------------------------------------------------------------------------|

e-----5~~~~-------8~~~~~~~----8~~-----8~~-----8~~-----10~~-----10s13~~----12~~--|
b---------------------------------8~-----8~~-----8~~-----8~~-------8~~----------|
g-------------------------------------------------------------------------------|
d-------------------------------------------------------------------------------|
a-------------------------------------------------------------------------------|
d-------------------------------------------------------------------------------|

Break Down---------Drums and piano

Other Solo 03:50 – 04:03
e----5h7h8-x12-------------10p7----------10s13s12----------------------------------------|
b------------------------------------8-x12-----------------------------------------------|
g----------------------------------------------------------------------------------------|
d----------------------------------------------------------------------------------------|
a----------------------------------------------------------------------------------------|
d----------------------------------------------------------------------------------------|
I can figure out the last part of the solo…and the rhythm for the solos and  the break
downs is just the verse with light distortion and palm muted..

Comments and Ideas email me at drawnrock@hotmail.com
Добавлено: 05.04.2012
Другие материалы по этой песне:

Страница создана 03.03.2012
http://primanota.ru/misc/roadrunner-united-enemy-of-the-state-chords.htm
Привет, Гость.
Предлагаем пройти революционный курс по гитаре.
Подарок от PrimaNota.Ru, забирай!