PrimaNota.ru - самый крупный в мире бесплатный архив песенных текстов, аккордов, табулатур и нот


Misc - Paradise Hotel Danish - таба, видео

Регистрация Запомнить меня
Войти через:  Facebook Google Twitter Vk Yandex Mail.ru

Misc - Paradise Hotel Danish - таба, видео

Печатать
Просмотров: 114
-------------------------------------------------------------------------------
                             Paradise Hotel Danish Intro - Misc
-------------------------------------------------------------------------------
Tabbed by: Marcus T
E-mail: marcustherkildsen@gmail.com

Tuning: E (standard)

Melody

e|--/15-17-15-14-------------------------------------------------------------|
B|---------------17-15-14----------------------------------------------------|
G|------------------------14-------------------------------------------------|
D|---------------------------------------------------------------------------|
A|---------------------------------------------------------------------------|
E|---------------------------------------------------------------------------|

e|-----17-15-14-------------------14-----------------------------------------|
B|--------------~17-15-17-15-13-17----~17------------------------------------|
G|--14-----------------------------------------------------------------------|
D|---------------------------------------------------------------------------|
A|---------------------------------------------------------------------------|
E|---------------------------------------------------------------------------|

e|-----17-15-19-----14-------------------------------------------------------|
B|--------------~17----17-15-15-15-------------------------------------------|
G|--14----------------------------b14----------------------------------------|
D|---------------------------------------------------------------------------|
A|---------------------------------------------------------------------------|
E|---------------------------------------------------------------------------|

e|-----14--------------------------------------------------------------------|
B|--17----17-15-b15----------------------------------------------------------|
G|---------------------b14---------------------------------------------------|
D|---------------------------------------------------------------------------|
A|---------------------------------------------------------------------------|
E|---------------------------------------------------------------------------|

Rhytm power chords 
(listen to song for rhytm, or play along with me on youtube.com/watch?v=J7dxWfK_ESU)

3 X 
e|---------------------------------------------------------------------------|
B|---------------------------------------------------------------------------|
G|--7--7---------------------------------------------------------------------|
D|--7--7----5--5----7--7--7-7------------------------------------------------|
A|--5--5----5--5----7--7--7-7------------------------------------------------|
E|----------3--3----5--5--5-5------------------------------------------------|

1 X

e|---------------------------------------------------------------------------|
B|---------------------------------------------------------------------------|
G|--7--7---------------------------------------------------------------------|
D|--7--7----5--5----7--------------------------------------------------------|
A|--5--5----5--5----7--------------------------------------------------------|
E|----------3--3----5--------------------------------------------------------|

1 X

e|---------------------------------------------------------------------------|
B|---------------------------------------------------------------------------|
G|--7------------------------------------------------------------------------|
D|--7-----------------------------7------------------------------------------|
A|--5-----------------------------7------------------------------------------|
E|--------------------------------5------------------------------------------|

************************************

| /   slide up
| \   slide down
| h   hammer-on
| p   pull-off
| ~   vibrato
| +   harmonic
| x   Mute note
| b   Bend
| pb  Pre-bend
| br  Bend release
| pbr Pre-bend release
| brb Bend release bend

************************************
Добавлено: 05.11.2013
Другие материалы по этой песне:
  • Аккорды и текст

Страница создана 13.06.2013
http://primanota.ru/misc/paradise-hotel-danish-chords.htm
Привет, Гость.
Предлагаем пройти революционный курс по гитаре.
Подарок от PrimaNota.Ru, забирай!