PrimaNota.ru - самый крупный в мире бесплатный архив песенных текстов, аккордов, табулатур и нот


Misc - noname band - текст песни, видео

Регистрация Запомнить меня
Войти через:  Facebook Google Twitter Vk Yandex Mail.ru

Misc - noname band - текст песни, видео

Печатать
Просмотров: 73
you can point and laugh at me about how dumb this song is...

Intro-
	
E--------------------------------------------------- E--------------------------------------------
B-5-5-5-5-5-4-4-4-4-4-5-5-5-5-5-6-6-6-6-6 B-5-5-5-5-5-5-5-5-5-5-5-5-5-5-5-5-5-5-5-5
G-3-3-3-3-3-2-2-2-2-2-3-3-3-3-3-4-4-4-4-4 X2 G-3-3-3-3-3-3-3-3-3-3-3-3-3-3-3-3-3-3-3-3 X2
D--------------------------------------------------- D--------------------------------------------
A--------------------------------------------------- A------------------------------------------
E--------------------------------------------------- E---------------------------------------------

Opening-
Guitar 1 					
E------------------ 			 
B-5-5-5-5-5-----					
G-3-3-3-3-3-----					
A-----------------					
D-----------------					
E------------------					
	
Opening lyrics 

E---------------------1-1-1-1 E---------------------------
B-5-5-5-5-5-5-5-5-1-1-1-1 B-2-1-2-3-x-x-x-x--------
G-3-3-3-3-3-3-3-3-3-3-3-3 X2		 G--------------------------- X2
D---------------------2-2-2-2 D--------------------------- 
A---------------------2-2-2-2 A---------------------------
E---------------------1-1-1-1 E---------------------------

Verse 1

E----------------------------
B-5-5-5-5-5-5-5-5-5-5-5-5
G-3-3-3-3-3-3-3-3-3-3-3-3 X2
D-----------------------------
A-----------------------------
E----------------------------

Chorus-

E------------------ 				E-3-2-3-4------- 
B-5-5-5-5-5-----					 B-----------------
G-3-3-3-3-3---- X8 	 	 G----------------- X4
D-----------------					 D-----------------
A-----------------					 A-----------------	
E------------------					 E------------------	

Verse 2-
				
E------------------ 				 
B-5-5-5-5-5-----				
G-3-3-3-3-3----- X8					
D-----------------					
A-----------------					
E------------------					

Chorus

Bridge
	
E------------------ 				 
B-5-4-3---------- 		 		
G-3-2-1---------- X6					
D-----------------					
A-----------------					
E------------------					

Chorus
Chorus
Добавлено: 22.01.2014
Другие материалы по этой песне:
  • Текст (слова)

Страница создана 22.01.2014
http://primanota.ru/misc/noname-band-lyrics.htm
Привет, Гость.
Предлагаем пройти революционный курс по гитаре.
Подарок от PrimaNota.Ru, забирай!