PrimaNota.ru - самый крупный в мире бесплатный архив песенных текстов, аккордов, табулатур и нот


Misc - Nokia Theme - таба, видео

Регистрация Запомнить меня
Войти через:  Facebook Google Twitter Vk Yandex Mail.ru

Misc - Nokia Theme - таба, видео

Печатать
Просмотров: 491
This is the nokia ring tone thing, i think its amusing to play at certain times,
i think it sounds right.


High Version

e---------------------------------------------|
b--17--15--------14p12--------12--------------|
g---------12-13-------------------14-------14-|
d----------------------12-14----------11-14---|
a---------------------------------------------|
e---------------------------------------------|

Lower Version
e-0------------------------------|
b---3--------2p0----0------------|
g---------1-------------2------2-|
d------4--------0-2----------2---|
a-------------------------4------|
e--------------------------------|

Enjoy
Cammies
Добавлено: 26.02.2012
Другие материалы по этой песне:

Страница создана 26.02.2012
http://primanota.ru/misc/nokia-theme-chords.htm
Привет, Гость.
Предлагаем пройти революционный курс по гитаре.
Подарок от PrimaNota.Ru, забирай!