PrimaNota.ru - самый крупный в мире бесплатный архив песенных текстов, аккордов, табулатур и нот


Misc - Katastrophen - аккорды и текст, видео

Регистрация Запомнить меня
Войти через:  Facebook Google Twitter Vk Yandex Mail.ru

Misc - Katastrophen - аккорды и текст, видео

Печатать
Просмотров: 79
Katastrophen
Misc
Intro/Verse

  Bb          F           C          D
e-----------------------------------------------\
B--1--1--1--1--1--1--1--1----------------------- \ 
G-------------------------5--5--5--5--5--5--5--5  \ repeat this the whole
D-----------------------------------------------  / intro and Verse
A-1--1--1--1-------------3--3--3--3--5--5--5--5- /
E-------------1--1--1--1------------------------/

Bridge/Chorus
 Bb          F           Bb          D     C
e-----------------------------------------------\
B--1--1--1--1--1--1--1--1--1--1--1--1----------- \ 
G-------------------------------------5--5--5--5  \ repeat this the whole
D-----------------------------------------------  / bridge and Chorus
A-1--1--1--1-------------1--1--1--1--5--5--3--3- /
E-------------1--1--1--1------------------------/


Verse I:
D                Bb
  Ich weiß nicht viel
                               F
  doch ich hab's nach Hause geschafft
                  C
  Hab so viel verloren
                    D
  in dieser letzten Nacht
              Bb
  Wo wär ich heute
                       F
  hätt's nie Fehler gegeben?
              C
  Wo wär ich jetzt
                   D
  wär das dasselbe Leben?


 Bridge:
Bb
 Es war nicht alles schlecht
F
 Es war nicht alles gut
Bb
 Doch es geht weiter
          D              C
 Nach der Ebbe kommt die nächste Flut

 Chorus:
             Bb                F
 Und all die Jahre, die Katastrophen
               Bb
 brachten mich weiter
     D                   C
 und jetzt bin ich hier- bei dir

Verse II:
 Ich war oft verzweifelt
 hab die Nacht durchgemacht
 Hab so viel geträumt
 und bin nie aufgewacht
 Hätt ich mir damals mehr Mühe gegeben
 könnte ich als Astronaut
 die Welt von oben sehen

 Bridge:
 Es war nicht alles schlecht
 es war nicht alles gut
 Doch es geht weiter
 nach der Ebbe kommt die nächste Flut

 Refrain:
 Und all die Jahre, die Katastrophen
 brachten mich weiter
 und jetzt bin ich hier
 Und all die Jahre, die Katastrophen
 brachten mich weiter
 und jetzt bin ich hier- bei dir

 Verse III:
 Hätten die Leuchtreklamen
 mich nicht nach Hause getragen
 dann wäre das mit dir und mir
 vielleicht niemals passiert

 Chorus:
 Und all die Jahre, die Katastrophen
 brachten mich weiter
 und jetzt bin ich hier
 Und all die Jahre, die Katastrophen
 brachten mich weiter
 und jetzt bin ich hier- bei dir

 Und jetzt bin ich hier - bei dir!

Link to the offical Homepage
http://www.ichkannfliegen.net/landingpage/
cheers!
Добавлено: 21.07.2013
Другие материалы по этой песне:
  • Аккорды и текст

Страница создана 21.07.2013
http://primanota.ru/misc/katastrophen-chords.htm
Привет, Гость.
Предлагаем пройти революционный курс по гитаре.
Подарок от PrimaNota.Ru, забирай!