PrimaNota.ru - самый крупный в мире бесплатный архив песенных текстов, аккордов, табулатур и нот


Misc - How Too Live In Hell (album) - таба, видео

Регистрация Запомнить меня
Войти через:  Facebook Google Twitter Vk Yandex Mail.ru

Misc - How Too Live In Hell (album) - таба, видео

Печатать
Просмотров: 57
-------------------------------------------------------------------------------
1.                           I Will Refuse, Resist - Misc
-------------------------------------------------------------------------------
Tabbed by:
E-mail:

Tuning: B Tuning (BEADF#B)
Intro
 b|------------------------------------------------|
 e|------------------------------------------------|
 a|------------------------------------------------| 
 D|----------------------4444----------------------|
F#|----------------------2222----------------------|
 B|-/xx\-0-1-0-1-0-1-0-1------0-1-0-1-0-1-0-1/6666-|x1

Intro 2 (Heavier)
 B|-------------------------------------------|
 E|-------------------------------------------|
 A|-----------------4444----------------------|
 D|-0-1-0-1-0-1-0-1-4444-0-1-0-1-0-1-0-1/6666-|
F#|-0-1-0-1-0-1-0-1-2222-0-1-0-1-0-1-0-1/6666-|
 B|-0-1-0-1-0-1-0-1------0-1-0-1-0-1-0-1/6666-|

verses
 B|---------------------------------------------------------------------------------------------|
 E|---------------------------------------------------------------------------------------------|
 A|-----------------------------------------------------------------10\99\77/6/77/10-10-10-10\\-|
 D|-7h8p7---8-7------------------8p7p5----------------------------------------------------------|
F#|-------9----------------------------7-7h8p7----------------------8-\77\55/4/55/8--8--8--8-\\-|
 B|-------------9-7--000-000-000---------------8-5-000-000-000-0000-----------------------------|
                     *** *** ***                   *** *** *** **** 

 B|----------------------------|
 E|----------------------------|
 A|----------------------------|
 D|-------------------------3*-|
F#|-----------8p7--------------|
 B|-0-1-0-4-0-----0-1-2-4-5----|
PM  * * * * * *** * * * * * 

 B|----------------------------|
 E|----------------------------|
 A|-------------------------3*-|
 D|-0-1-0-4-0-8p7-0-1-2-4-5----|
F#|-0-1-0-4-0-8p7-0-1-2-4-5----|
 B|-0-1-0-4-0-----0-1-2-4-5----|
 
 B|----------------------------|
 E|----------------------------|
 A|-------------------------3*-|
 D|-0-1-0-4-0-8p7-0-1-2-4-5----|
F#|-0-1-0-4-0-8p7-0-1-2-4-5----|
 B|-0-1-0-4-0-----0-1-2-4-5----|
 PM * * * * *     * * * * * 

Chorus
 B|-------------------------------------------------------------------------------------------------------|
 E|-------------------------------------------------------------------------------------------------------|
 A|--------------------------------------------------------------------------10\9-------------------------|
 D|-------------------------------------8~-5~--------------------------------10\9-6-5-1-------------------|
F#|-----------1---1--------1---1--------8~-5~------1---1--------1---1--------8-\7-6-5-1---------1-1-1-1-0-|
 B|-/xx\-0000-1-0-1-0-0000-1-0-1-0-0000-8~-5~-0000-1-0-1-0-0000-1-0-1-0-0000------6-5-1-000-000-1-1-1-1-0-|
PM       ****   *   * ****   *   * ****       ****   *   * ****   *   * ****            *** *** * * * * 

verses
 B|---------------------------------------------------------------------------------------------|
 E|---------------------------------------------------------------------------------------------|
 A|-----------------------------------------------------------------10\99\77/6/77/10-10-10-10\\-|
 D|-7h8p7---8-7------------------8p7p5----------------------------------------------------------|
F#|-------9----------------------------7-7h8p7----------------------8-\77\55/4/55/8--8--8--8-\\-|
 B|-------------9-7--000-000-000---------------8-5-000-000-000-0000-----------------------------|
                     *** *** ***                   *** *** *** **** 

 B|----------------------------|
 E|----------------------------|
 A|----------------------------|
 D|-------------------------3*-|
F#|-----------8p7--------------|
 B|-0-1-0-4-0-----0-1-2-4-5----|
PM  * * * * * *** * * * * * 

 B|----------------------------|
 E|----------------------------|
 A|-------------------------3*-|
 D|-0-1-0-4-0-8p7-0-1-2-4-5----|
F#|-0-1-0-4-0-8p7-0-1-2-4-5----|
 B|-0-1-0-4-0-----0-1-2-4-5----|
 
Play as outro fast
 B|----------------------------|
 E|----------------------------|
 A|-------------------------3*-|
 D|-0-1-0-4-0-8p7-0-1-2-4-5----|
F#|-0-1-0-4-0-8p7-0-1-2-4-5----|
 B|-0-1-0-4-0-----0-1-2-4-5----|
 PM * * * * *     * * * * * 


-------------------------------------------------------------------------------
2.                           War Deterrent   - Misc
-------------------------------------------------------------------------------

Tabbed by:
E-mail:

Tuning: B Tuning (BEADF#B)
Intro
 B|--------------------------------------------------------------------------------------------------|
 E|--------------------------------------------------------------------------------------------------|
 A|-------------------------3----------------------------------------------------------3-------------|
 D|-----------------3-6-3-----6-4-3--------------------------------------------------5---5-3-2-----2-|
F#|-----------------------5----------------------------6-5-3-4-3-1-----------------6-----------3h5-2-|
 B|-000-0-000-0-000-----------------5--000-0-000-0-000-6-5-3-4-3-1-000-0-000-0-000-----------------2-|x2
 PM *** * *** * ***                    *** * *** * ***             *** * *** * *** 

just before verse 
 B|--------------------------------------|
 E|--------------------------------------|
 A|-----10-8-7----8-6-----10-------------|
 D|------------10-----7-8----9-7---------|
F#|------------------------------8-10----|
 B|-/7~-------------------------------9~-|

Verse
 B|-------------------------------------------------------------------------------------|
 E|-------------------------------------------------------------------------------------|
 A|------------------------8------------------------8-8---------------------------------|
 D|------------------------8------------------------8-8-----------------------3-5-3-6\\-|
F#|-----------------------/6-----------------------/6-6-----------------------3-5-3-6\\-|
 B|-0-0-0-0-0-0-0-000-000----0-0-0-0-0-0-0-000-000------0-0-0-0-0-0-0-000-000-3-5-3-6\\-|
 PM * * * * * * * *** ***    * * * * * * * *** ***      * * * * * * * *** *** 

 B|----------------------------------------------------------------------------------------------------------|
 E|----------------------------------------------------------------------------------------------------------|
 A|---------8\7/8/10--12-----------------------5-----------------------------7---5---------------------------|
 D|---------8\7/8/10--12---------5h6p5---5-----------5-6-8-5-7-8-7-5---------5---3-----------2h3p2---2-----0-|
F#|---------6\5/6/8---10---------------8---7-8---2h3-5-6-8-5-7-8-7-5---------5---3-----------------3---3p2-0-|
 B|-000-000---------0----000-000---------------------5-6-8-5-7-8-7-5-555-555-5-5-3-333-333-3---------------0-|
 PM *** ***         *    *** *** ***** * * * *   ***                 *** ***   *   *** *** * ***** * * *** 

Chorus
 B|------------------------------------------------------------------------------------------------------------|
 E|------------------------------------------------------------------------------------------------------------|
 A|---------------------------------------------5-4-3----------------------------------------------------------|
 D|-1-1-1-1-1-0-6-1-1-1-1-1-0-6-----------------5-4-3-2------2-2-2-2-2-/8p7p5------------2-2-2-2-2-------------|
F#|-1-1-1-1-1-0-6-1-1-1-1-1-0-6-----------------3-2-1-2------2-2-2-2-2--------5p4p2------2-2-2-2-2-------------|
 B|-1-1-1-1-1-0-6-1-1-1-1-1-0-6-111-333-777-666-------2-/xx\-2-2-2-2-2--------------4444-2-2-2-2-2-000-111-666-|
 PM * * * * *     * * * * *     *** *** *** ***              * * * * *              **** * * * * * *** *** *** 

Verse
 B|-------------------------------------------------------------------------------------|
 E|-------------------------------------------------------------------------------------|
 A|------------------------8------------------------8-8---------------------------------|
 D|------------------------8------------------------8-8-----------------------3-5-3-6\\-|
F#|-----------------------/6-----------------------/6-6-----------------------3-5-3-6\\-|
 B|-0-0-0-0-0-0-0-000-000----0-0-0-0-0-0-0-000-000------0-0-0-0-0-0-0-000-000-3-5-3-6\\-|
 PM * * * * * * * *** ***    * * * * * * * *** ***      * * * * * * * *** *** 

 B|----------------------------------------------------------------------------------------------------------|
 E|----------------------------------------------------------------------------------------------------------|
 A|---------8\7/8/10--12-----------------------5-----------------------------7---5---------------------------|
 D|---------8\7/8/10--12---------5h6p5---5-----------5-6-8-5-7-8-7-5---------5---3-----------2h3p2---2-----0-|
F#|---------6\5/6/8---10---------------8---7-8---2h3-5-6-8-5-7-8-7-5---------5---3-----------------3---3p2-0-|
 B|-000-000---------0----000-000---------------------5-6-8-5-7-8-7-5-555-555-5-5-3-333-333-3---------------0-|
 PM *** ***         *    *** *** ***** * * * *   ***                 *** ***   *   *** *** * ***** * * *** 

Lead
 B|------13p12p10-------10h13p12p10-------10h13p12p10------------------------------------------------------|
 E|-/13~----------12h13-------------12h13-------------12p10p9-------9h12p10p9-------9h12p10p9--------------|
 A|-----------------------------------------------------------11h12-----------11h12-----------11p9p8-------|
 D|--------------------------------------------------------------------------------------------------10h11-|
F#|--------------------------------------------------------------------------------------------------------|
 B|--------------------------------------------------------------------------------------------------------|

 B|-------------------------------------------------------------10p8p7h10p8p7---------------------------------|
 E|---------------------------------------------------------------------------10p8p7h10p8p7-------------------|
 A|-8h11p9p8-------8h11p9p8-----------------------------------------------------------------10p8p7------------|
 D|----------10h11----------10p8p7------7h10p8p7------7h10p8p7-------------------------------------8p6p5------|
F#|--------------------------------9h10----------9h10----------------------------------------------------7~\\-|
 B|-----------------------------------------------------------------------------------------------------------|

Chorus
 B|------------------------------------------------------------------------------------------------------------|
 E|------------------------------------------------------------------------------------------------------------|
 A|---------------------------------------------5-4-3----------------------------------------------------------|
 D|-1-1-1-1-1-0-6-1-1-1-1-1-0-6-----------------5-4-3-2------2-2-2-2-2-/8p7p5------------2-2-2-2-2-------------|
F#|-1-1-1-1-1-0-6-1-1-1-1-1-0-6-----------------3-2-1-2------2-2-2-2-2--------5p4p2------2-2-2-2-2-------------|
 B|-1-1-1-1-1-0-6-1-1-1-1-1-0-6-111-333-777-666-------2-/xx\-2-2-2-2-2--------------4444-2-2-2-2-2-000-111-666-|
 PM * * * * *     * * * * *     *** *** *** ***              * * * * *              **** * * * * * *** *** ***

-------------------------------------------------------------------------------
3.                           We Will Rise - Misc
-------------------------------------------------------------------------------

Tabbed by:
E-mail:

Tuning: Drop D (DADGBE)
Intro
E|------------------------------------------------------|
B|-------------------------------8b--8b-----------------|
G|-------------5b-5b-------------10b-10b----------------|
D|-------------7b-7b---------------------555-333/777\\\-|
A|---------------------------------------555-333/777\\\-|
D|-2222-2-2-2-2-------2222-2-2-2-2-------555-333/777\\\-|
PM **** * * * *       **** * * * * 

Main Riff/Chorus (play fast)
E|----------------------------------------------|
B|----------------------------------------------|
G|----------------------------------------------|
D|-5-2-0-1-2-4\-5-2-0-1-2-4\-5-2-0-1-2-7-5-4\\\-|
A|-5-2-0-1-2-4\-5-2-0-1-2-4\-5-2-0-1-2-7-5-4\\\-|
D|-5-2-0-1-2-4\-5-2-0-1-2-4\-5-2-0-1-2-7-5-4\\\-|

Verses
E|----------------------------------------------------------------------------------------|
B|----------------------------------------------------------------------------------------|
G|---1-3-------1-----4-6-------4-----7-9-------7------------------------------------------|
D|-------3-1-3-----------6-4-6-----------9-7-9-------5-7-------5-----8-10---------8--10-7-|
A|---------------3/4-------------6/7-------------9\5-----7-5-7------------10-8-10----10-7-|
D|-0-------------------------------------------------------------7/8-----------------10-7-|
PM * 

-------------------------------------------------------------------------------
4.                    How Too Live In Hell - Misc
-------------------------------------------------------------------------------

Tabbed by:
E-Mail:

Tuning: D Tuning (DAFCGD)
Intro
D|----------7-----------7---------5---------5--------------9--------------9---|
A|------------7-----------7---------5---------5--------------9--------------9-|
F|-------9------------9---------------------------------11-------------11-----|
C|-----9------------9-----------6---------6----------12-------------12--------|
G|---7------------7-----------7---------7---------11-------------11-----------|
D|-7------------7-----------5---------5---------9--------------9--------------|x5

Verses (Volume Swell)
D|---------------------------------------------------------------------------------------------------------|
A|---------------------------------------------------------------------------------------------------------|
F|---------------------------------------------------------------------------------------------------------|
C|---------------------------------1---------------------------------1---------------------------------1/2-|
G|---------------------------------1---------------------------------1---------------------------------1/2-|
D|-0000-0-00000-00-000-0-00-0000-0---0000-0-00000-00-000-0-00-0000-0---0000-0-00000-00-000-0-00-0000-0-----|

D|------------------------------------------------------------------------------------------------------|
A|------------------------------------------------------------------------------------------------------|
F|------------------------------------------------------------------------------------------------------|
C|---------------------------------2---------------------------------2----------------------------------|
G|---------------------------------2---------------------------------2----------------------------------|
D|-0000-0-00000-00-000-0-00-0000-0---0000-0-00000-00-000-0-00-0000-0---0000-0-00000-00-000-0-00-0000-0--|

D|-----|
A|-----|
F|-7-4-|
C|-7-4-|
G|-5-2-|
D|-----|

Chorus
D|--------------------------------------------------------------------------------------|
A|--------------------------------------------------------------------------------------|
F|------------------------10\9--------------8/4/5-------------------------6-------------|
C|------5-x-5-5/8-x-8-8-x-10\9-7-xx-6-6/9-x-8/4/5-5-----------2-3---3-------6---6-4-2-3-|
G|------5-x-3-3/6-x-6-6-x-8-\7-7-xx-6-6/9-x-6/2/3-5-----------2-3-----3\1-----4-6-4-2-3-|
D|-/x\x/3-x-3-3/6-x-6-6-x------5-xx-4-4/7-x-------3-1-3-3-1-3-0-1-1-------------4-2-0-1-|
PM                                                  * * * * * 

Interlude
D|-------------------------------------------------------------------------------|
A|-------------------------------------------------------------------------------|
F|------3/5-------------------1/3------------------------------------------------|
C|---------------6-5-3-----------------4-3-1-------------------------------------|
G|---------------------5---------------------3------5-------5/8------1-----------|
D|-0-00-----0-00---------0-00-----0-00---------0-00---0-000-----0-00---0-000-1/4-|

D|--------------------------------------------------------------------------------|
A|--------------------------------------------------------------------------------|
F|------3/5-------------------1/3-------------------------------------------------|
C|------3/5------8-7-5--------1/3------6-5-3-3------7-------7/10------3-----------|
G|---------------6-5-3-5---------------4-3-1-3------5-------5/8-------1-------3/6-|
D|-0-00-----0-00-------3-0-00-----0-00-------1-0-00---0-000------0-00---0-000-1/4-|

Solo
D|-----------------------------------------------------------------------------------------------------/12b~-|
A|---------------------------------------------------------------------------------4-----5h8p5h8p5h8p5-------|
F|-------------------------------------------------------------------5-----5-----5---5h6---------------------|
C|-----------------------------------------------4p7-5-4---4-7---4-6---4-6---4-6-----------------------------|
G|-----------2-4-5-----5-4-2-5-4-2-----7-5-4-7-5---------7-----7---------------------------------------------|
D|-/5~-2-4-5-------2-4-------------4-5-----------------------------------------------------------------------|
PM     * * * * * * * * * * * * * * * * * * * *   

D|-12h15p12h15p12h15p12h16p12h16p12h16p12-16----------12-16----------------------------------------------------|
A|-------------------------------------------15-12-15-------15-13-12-14-------14-------14----------------------|
F|----------------------------------------------------------------------14-12----14-12----14-12-------12-------|
C|----------------------------------------------------------------------------------------------15-14----15-14-|
G|-------------------------------------------------------------------------------------------------------------|
D|-------------------------------------------------------------------------------------------------------------|

D|-------------------------------------------------------------------------------------------20b~~-|
A|-------------------12----------------------------------------------------------16-15-------20b~~-|
F|-12----------------------------------17-------17-15-14----14-15-17-15-14----17-------16-17-------|
C|----15-14----15-14----14-15----14-15----14-15----------16----------------16----------------------|
G|----------12----------------17-------------------------------------------------------------------|
D|-------------------------------------------------------------------------------------------------|

Verses (Volume Swell)
D|---------------------------------------------------------------------------------------------------------|
A|---------------------------------------------------------------------------------------------------------|
F|---------------------------------------------------------------------------------------------------------|
C|---------------------------------1---------------------------------1---------------------------------1/2-|
G|---------------------------------1---------------------------------1---------------------------------1/2-|
D|-0000-0-00000-00-000-0-00-0000-0---0000-0-00000-00-000-0-00-0000-0---0000-0-00000-00-000-0-00-0000-0-----|

D|------------------------------------------------------------------------------------------------------|
A|------------------------------------------------------------------------------------------------------|
F|------------------------------------------------------------------------------------------------------|
C|---------------------------------2---------------------------------2----------------------------------|
G|---------------------------------2---------------------------------2----------------------------------|
D|-0000-0-00000-00-000-0-00-0000-0---0000-0-00000-00-000-0-00-0000-0---0000-0-00000-00-000-0-00-0000-0--|

Interlude (till End)
D|-------------------------------------------------------------------------------|
A|-------------------------------------------------------------------------------|
F|------3/5-------------------1/3------------------------------------------------|
C|---------------6-5-3-----------------4-3-1-------------------------------------|
G|---------------------5---------------------3------5-------5/8------1-----------|
D|-0-00-----0-00---------0-00-----0-00---------0-00---0-000-----0-00---0-000-1/4-|

-------------------------------------------------------------------------------
5.                  Flashpoint   - Misc
-------------------------------------------------------------------------------

Tabbed by:
E-Mail:

Tuning: Standard (EBGDAE)
Intro
E|-----------------------------------------------------|
B|-----------------------------------------------------|
G|---------8---7---3---5-------------------5-----------|
D|---------8---7---3---5---5---8---3---6---5-6-5-3-5-2-|
A|---------6---5---1---3---5---8---3---6---3-6-5-3-5-2-|
E|-12\\-00---x---x---x---x-3-x-6-x-1-x-4-x---4-3-1-3-0-|x3
PM      ** 

Verses (all)
E|----------------------------------------------------------------------------------------------------------|
B|----------------------------------------------------------------------------------------------------------|
G|----------------------------------------------------------------------------------------------------------|
D|-----5---5--5-----5---5--5/7-----7---7--7-----7---7--7\4-----4---4--4-----4---4--4------5-4-3---3h4p3/6\\-|
A|-----5---5--5-----5---5--5/7-----7---7--7-----7---7--7\4-----4---4--4-----4---4--4-/3-6-------6-----------|
E|-33333-333-33-33333-333-33/5-55555-555-55-55555-555-55\2-22222-222-22-22222-222-22------------------------|
PM ****  **  *  ****  **  *    ****  **  *  ****  **  *    ****  **  *  ****  **  *   * * * * * * 


Chorus
E|-----------------------------------------------------------------------------------------|
B|--------------------------------10~\-----------------------------------13~\--------------|
G|-------------12-11---------9----------------------15-14----------12----------------------|
D|-------------------9-11-12---12-------------------------12-14-15----15------5/6/8--3/7\\-|
A|----------------------------------------------------------------------------5/6/8--3/7\\-|
E|-0-0-0-0-0-0-------------------------0-0-0-0-0-0----------------------------3/4/6--1/5\\-|
PM * * * * * *                         * * * * * * 

Intro
E|-----------------------------------------------------|
B|-----------------------------------------------------|
G|---------8---7---3---5-------------------5-----------|
D|---------8---7---3---5---5---8---3---6---5-6-5-3-5-2-|
A|---------6---5---1---3---5---8---3---6---3-6-5-3-5-2-|
E|-12\\-00---x---x---x---x-3-x-6-x-1-x-4-x---4-3-1-3-0-|x3
PM      ** 

Verses (all)
E|----------------------------------------------------------------------------------------------------------|
B|----------------------------------------------------------------------------------------------------------|
G|----------------------------------------------------------------------------------------------------------|
D|-----5---5--5-----5---5--5/7-----7---7--7-----7---7--7\4-----4---4--4-----4---4--4------5-4-3---3h4p3/6\\-|
A|-----5---5--5-----5---5--5/7-----7---7--7-----7---7--7\4-----4---4--4-----4---4--4-/3-6-------6-----------|
E|-33333-333-33-33333-333-33/5-55555-555-55-55555-555-55\2-22222-222-22-22222-222-22------------------------|
PM ****  **  *  ****  **  *    ****  **  *  ****  **  *    ****  **  *  ****  **  *   * * * * * * 

Intro (play until end)
E|-----------------------------------------------------|
B|-----------------------------------------------------|
G|---------8---7---3---5-------------------5-----------|
D|---------8---7---3---5---5---8---3---6---5-6-5-3-5-2-|
A|---------6---5---1---3---5---8---3---6---3-6-5-3-5-2-|
E|-12\\-00---x---x---x---x-3-x-6-x-1-x-4-x---4-3-1-3-0-|


-------------------------------------------------------------------------------
6.                  Sands Of Time   - Misc
-------------------------------------------------------------------------------
Tabbed by:
E-Mail:

Tuning: E flat (EbBbGbDbAbEb)
intro
Eb|----------------------------------------------------------------------------------------------|
Bb|---------10---------10---------10h13p12p10----------12----------12----------12h15p14p12-------|
Gb|-------8----------8----------8-------------------10----------10----------10-------------14p12-|
Db|-----7----------7----------7-------------------9-----------9-----------9----------------------|
Ab|---5----------5----------5-------------------7-----------7-----------7------------------------|
Eb|-0----------0----------0-------------------0-----------0-----------0--------------------------|x7

Verses
Eb|---------------------------------------------------------------------11---------------11------12-------13-|
Bb|---------7-----------7---------------9---------------9-------------9----9-----------9------10-------11----|
Gb|-------5---5-------5---5-----------7---7-----------7---7---------8--------8-------8------9-------10-------|
Db|-----4-------4---4-------4-------6-------6-------6-------6-----6------------6-----------------------------|
Ab|---2-----------2-----------2/--4-----------4---4-----------4----------------------------------------------|
Eb|-0---------------------------0---------------0---------------0----------------0---------------------------|

Chorus
Eb|------------------------------------------------------------------------------------|
Bb|------------------------------------------------------------------------------------|
Gb|--------------8-7-6--------------------4-3-2--------------------9-8-7-6-8-7---------|
Db|--------------8-7-6-8-7-6--------------4-3-2-4-3-2--------------9-8-7-6-8-7-6-5-3-2-|
Ab|--------------------6-5-4--------------------2-1-0----------------------6-5-6-5-3-2-|
Eb|-000000000000-------------000000000000-------------000000000000-------------4-3-1-0-|
PM  ************             ************             ************ 

Solo
Eb|-/12-15p12----12h15p12----12h16p12-------14h17p14----14h17p14----14h17p14-------16h19p16----|
Bb|-----------13----------13----------13/15----------15----------15----------15/17----------17-|
Gb|--------------------------------------------------------------------------------------------|
Db|--------------------------------------------------------------------------------------------|
Ab|--------------------------------------------------------------------------------------------|
Eb|--------------------------------------------------------------------------------------------|

Eb|-16h19p16----16h19p16-------18h21p20p18h21p20p18h21b-21b-21b-|
Bb|----------17----------17/19------------------------------19b-|
Gb|-------------------------------------------------------------|
Db|-------------------------------------------------------------|
Ab|-------------------------------------------------------------|
Eb|-------------------------------------------------------------|

Eb|-19p18p16h19p18p16-------------------------------------------------------16p15p13h16p15p13----------/18~-|
Bb|-------------------19p18p16h19p18p16-------------------17p16p14h17p16p14-------------------16p15p13-/18~-|
Gb|-------------------------------------17p16p14h17p16p14---------------------------------------------------|
Db|---------------------------------------------------------------------------------------------------------|
Ab|---------------------------------------------------------------------------------------------------------|
Eb|---------------------------------------------------------------------------------------------------------|

Chorus
Eb|------------------------------------------------------------------------------------|
Bb|------------------------------------------------------------------------------------|
Gb|--------------8-7-6--------------------4-3-2--------------------9-8-7-6-8-7---------|
Db|--------------8-7-6-8-7-6--------------4-3-2-4-3-2--------------9-8-7-6-8-7-6-5-3-2-|
Ab|--------------------6-5-4--------------------2-1-0----------------------6-5-6-5-3-2-|
Eb|-000000000000-------------000000000000-------------000000000000-------------4-3-1-0-|
PM  ************             ************             ************ 

intro (play untilend)
Eb|----------------------------------------------------------------------------------------------|
Bb|---------10---------10---------10h13p12p10----------12----------12----------12h15p14p12-------|
Gb|-------8----------8----------8-------------------10----------10----------10-------------14p12-|
Db|-----7----------7----------7-------------------9-----------9-----------9----------------------|
Ab|---5----------5----------5-------------------7-----------7-----------7------------------------|
Eb|-0----------0----------0-------------------0-----------0-----------0--------------------------|

-------------------------------------------------------------------------------
7.                  Eaten Alive   - Misc
-------------------------------------------------------------------------------
Tabbed by:
E-Mail:

Tuning: Drop D (EBGDAD)
intro
E|---------------------------|
B|---------------------------|
G|-------------2-----2-------|
D|---------5-4-------------2-|
A|---------------4-5---5-4-2-|
D|-0-2-2-2-----------------2-|x13
PM * * * * 

Main Riff/Chorus (play extremely fast)
E|-----------------------------------------------------------------------------------|
B|-----------------------------------------------------------------------------------|
G|-------5-4---------5-4-------6-5---------6-5-------------7-6---------------8-------|
D|-5-3-2-5-4-2-5-3-2-5-4-3-5-6-6-5-2-3-5-6-6-5-8-6-5-6-5-3-7-6-6-4-3---3---3/6-4-3-2-|
A|-5-3-2-3-2-2-5-3-2-3-2-3-5-6-4-3-2-3-5-6-4-3-8-6-5-6-5-3-5-4-6-4-3---3---3/6-4-3-2-|
D|-5-3-2-----2-5-3-2-----3-5-6-----2-3-5-6-----8-6-5-6-5-3-----6-4---x---x-----4-3-2-|

Verses
E|--------------------------------------------------------------------|
B|--------------------------------------------------------------------|
G|--777-6-------777-10--------777-4-----222-0-------222-5-------------|
D|--------4-3-2--------8-6-5--------2-3-------3-0-3-------3-2-1-3-1-3-|
A|--------4-3-2--------8-6-5--------2-3-------3-0-3-------3-2-1-3-1-3-|
D|--------------------------------------------------------------3-1-3-|
PM                                                              * * * 

Lead
E|-/16p14p12h16p14p12h16p14p12t18p14p12t18p14p12ht19p14p12------------------------------------|
B|-/------------------------------------------------------16p14p12h16p14p12h16p14p12t18p14p12-|
G|--------------------------------------------------------------------------------------------|
D|--------------------------------------------------------------------------------------------|
A|--------------------------------------------------------------------------------------------|
D|--------------------------------------------------------------------------------------------|

E|------------------------------------------------------------------------------------------------|
B|------------------------------------------------------------------------------------------------|
G|-16p14p12h16p14p12h16p14p12t18p14p12t18p14p12t18p14p12ht19p14p12--------------------------------|
D|-----------------------------------------------------------------12t18p14p12t18p14p12ht19p14p12-|
A|------------------------------------------------------------------------------------------------|
D|------------------------------------------------------------------------------------------------|

E|---------------------------------------------------------------------------|
B|---------------------------------------------------------------------------|
G|---------------------------------------------------------------------------|
D|---------------------------------------------------------------------------|
A|-12t18p14p12t18p14p12ht19p14p12t18p14p12ht19p14p12t18p14p12ht19p14p12~\\\\-|
D|---------------------------------------------------------------------------|

intro (play til end)
E|---------------------------|
B|---------------------------|
G|-------------2-----2-------|
D|---------5-4-------------2-|
A|---------------4-5---5-4-2-|
D|-0-2-2-2-----------------2-|
PM * * * * 

-------------------------------------------------------------------------------
8.                Scar Of Recognition     - Misc
-------------------------------------------------------------------------------
Tabbed by:
E-Mail:

Tuning: Drop B (BF#BEG#C#)
Intro
B|----------12------12-----10-----10----8-----8-------6------6------5-------5-0-|
F#|------12------12-----10-----10-----8-----8-------6------6------4-------4---3-|
B|----11------11------9------9------7-----7-------5------5------3-------3-----2-|
E|----------------------------------------------------------------------------0-|
G#|---------------------------------------------------------------------------0-|
C#|-0-------0-------0------0------0-----0------0-------0------0------0--------0-|
PM  *       *       *      *      *     *      *       *      *      *  

Verses
B|------------------------------------------------------------------------------------------------------|
F#|-----------------------------------------------------------------------------------------------------|
B|-------------------------------------------777\555/10-10-10\\-----------------------------------------|
E|--5h6p5---5---------------------------------------------------7h8p7---7-------------------------------|
G#|-------6---6p5p3-3h4p3---3----------------555\333/8--8--8-\\-------8---8p7p5-5h6p5---5---------------|
C#|-----------------------4---4-3-1--000-000------------------------------------------6---6-5-3-000-000-|
PM                                   *** ***                                                    *** *** 

B|-----------------------------------------------------------------------------------------|
F#|----------------------------------------------------------------------------------------|
B|--555\444/888\\---------------------------------------------12-12-12\11-11-11/15-15-15\\-|
E|----------------9h10p9----9--------------------------------------------------------------|
G#|-333\222/666\\--------10---10p9p7-7h8p7---7---------------/10-10-10\9--9--9/-13-13-13\\-|
C#|----------------------------------------8---8-7-5-000-000-------------------------------|
PM                                                   *** *** 

Chorus
B|----------------------------------------------------------------------------|
F#|---------------------------------------------------------------------------|
B|------10\9-------8\7-------6\5-------5/7-------8-------------------------7~-|
E|------10\9-7-6---8\7-5-4---6\5-3-2---5/7---8-7-8-6-9/10----5-7-----------7~-|
G#|-----8-\7-7-6---6\5-5-4---4\3-3-2---3/5---8-7-6-6-9/10----5-7-------4-5----|
C#|-00-------7-6-0-----5-4-0-----3-2-0-----0-8-7---6-9/10-/x\5-7-4-5-7--------|
PM  **           *         *         *     *                     * * *      






| /   slide up
| \   slide down
| h   hammer-on
| p   pull-off
| ~   vibrato
| +   harmonic
| x   Mute note
| b   Bend
| pb  Pre-bend
| br  Bend release
| pbr Pre-bend release
| brb Bend release bend

************************************
Добавлено: 02.03.2016
Другие материалы по этой песне:
  • Аккорды и текст

Страница создана 02.03.2016
http://primanota.ru/misc/how-too-live-in-hell-album-chords.htm
Привет, Гость.
Предлагаем пройти революционный курс по гитаре.
Подарок от PrimaNota.Ru, забирай!