PrimaNota.ru - самый крупный в мире бесплатный архив песенных текстов, аккордов, табулатур и нот


Misc - Guitar Riffs - аккорды и текст, таба, видео

Регистрация Запомнить меня
Войти через:  Facebook Google Twitter Vk Yandex Mail.ru

Misc - Guitar Riffs - аккорды и текст, таба, видео

Печатать
Просмотров: 74
Guitar Riffs
Misc
		   Layla
_______________________
Derek & The Dominos
-------------------------------------|
-------------------------------------|
-------------------------------------|
-----0-3-0---0--7-5-3------5-------7-|
-0-3-------3----5-3-1--0---3--0-3--5-|
-------------------------3-----------|

Satisfaction
________________________
Rolling Stones
--------------------------|
--------------------------|
--------------------------|
--------------------------|
-2-2--2--4-5--5--4--2-2---|
--------------------------|

My Generation
_________________________
The Who
-------------------------------------|
-------------------------------------|
-------------------------------------|
-5-5-5-5--3-3-3-3--5-5-5-5--3-3-3-3--|
-5-5-5-5--3-3-3-3--5-5-5-5--3-3-3-3--|
-3-3-3-3--1-1-1-1--3-3-3-3--1-1-1-1--|

Roundabout
__________________________
Yes
-----12^---7-5/7-5-3/2--5~----|
-----12^----------------------|
-----12^----------------------|
------------------------------|
------------------------------|
-12^--------------------------|

TNT
_______________________
AC/DC                     [Slight Variation]
-----------------------|-----------------------|
-----------------------|-----------------------|
-1--------2----2----1--|-1------------------1--|
-2--------2----2----2--|-2--5---7---5-7-5---2--|
-2--------0---------2--|-2--5---7---5-7-5---2--|
------3------3---3-0---|----3---5---3-5-3-0----|

Sweet Home Alabama
_______________________
Lynyryd Skynyryd
-----------------------------------------------|
-----3---------3-----------3-------------------|
-------2---------0-----------0-----------------|
-0-0--------------------------------0-2-0---0--|
---------3-0-3------------------0-2-------2----|
--------------------3-0-3----------------------|

Roadhouse Blues
________________________
The Doors
---------------------|--------------------|
---------------------|--------------------|
---------------------|--------------------|
---------------------|--------------------|
---------------------|----------------5/7-|
-0--0-0--0-0--0-5/7--|-0--0-0--0-0--0-----|

Voodoo Child
________________________
Jimi Hendrix
----------------------------------------|
----------------------------------------|
-9~-7---7~------------9~-7-------9~p[7]-|
------9----5-5--7-5--------9-[9]--------|
--------------------7-------------------|
----------------------------------------|

Crazy Train
________________________
Ozzy Osbourne
-----------------|-------------------|
-----------------|-------------------|
-----------------|-------------------|
-----------------|-------------------|
-----4---5---4---|-2-0---0--2-0------|
-2-2---2---2---2-|----4--------4-0-2-|

Back In Black
________________________
AC/DC                    Ending one       Ending two
---------------------|-3-0--------------|---------------------|
---------------------|-----3-0----------|---------------------|
-1----7-7-7----------|---------2-0------|---------------------|
-2----7-7-7----7-7-7-|-------------2-0--|---------------------|
-2----5-5-5----5-5-5-|------------------|---------------------|
---------------5-5-5-|------------------|-7-4--7-5--7-6--7-7--|

Wish You Were Here
________________________
Pink Floyd
------------3-3--3-3--3-----------|
------------3-3--3-3--3-----------|
------------0-0--0-0--0-----------|
-------0-2---------------2-0------|
---0h2-----------------------2-0--|
-3--------------------------------|

Cat Sctratch Fever
________________________
Ted Nugent
----------------------------------------|
-2--4-5-5--2-4-5-------2--4-5-5--5-4-2--|
-2--4-5-5--2-4-5-------2--4-5-5--5-4-2--|
-2--4-5-5--2-4-5-------2--4-5-5--5-4-2--|
----------------------------------------|
-----------------0-3-4------------------|

Johny B Goode
________________________
Chuck Berry
---------6/7-7-7-6/7-7-7-6/7-7-7---------------|
-----7-9-6/7-7-7-6/7-7-7-6/7-7-7--9-8-6--------|
-7h8------------------------------------6h7----|
--------------------------------------------8--|
-----------------------------------------------|
-----------------------------------------------|

59th Street Bridge Song [Feelin' Groovy]
________________________
Simon & Garfunkel
---0-------------------------0-------------7--3-|
-----3------1-----0------------3-----1----------|
-------0------0------0---0-------0-----0--------|
---0-----0------0------0-----0-----0-----0------|
-3---2------0--------------3---2-----0--------0-|
------------------3-----------------------------|

Whole Lotta Love
________________________
Led Zeppelin
--------------------------------------------|
--------------------------------------------|
--------------------------------------------|
---0---0--9-9-9-9-9-9-9-9-9-9-9-9-9-9-9-9---|
---5---5--7-7-7-7-7-7-7-7-7-7-7-7-7-7-7-7---|
-7---7--------------------------------------|

Hey Joe
________________________
Jimi Hendrix
[This is my slightly enhanced version]
-0-0--------------------------------------------------------|
-3/5-3---------------------------------0--------------------|
-------2p0-----------------------------1----------7-----7---|
-----------2~------------5---5---4-2---2------7h9-7-7h9-7-9-|
----------------4-5~---4/5---5---4-2---2--[0]---------------|
--------------0------0-----0---0-----0----------------------|

Sweet Child O' Mine
_________________________
Guns 'n Roses
-------------15----14-----|
----15--------------------|
-------14-12----14----14--|
-12-----------------------|
--------------------------|
--------------------------|

Suite:Judy Blue Eyes
__________________________
Crosby,Stills,Nash & Young
-7-7-7-7-7-7-7-7-7-6-5-4-|-4--0-0-0-0--4--0-0-0-0-|
-9-9-9-9-9-9-9-9-9-8-7-5-|-5--2-0-2-0--5--2-0-2-0-|
-------------------------|------------------------|
-------------------------|------------------------|
-------------------------|------------------------|
-------------------------|------------------------|

Fortunate Son
__________________________
Creedence Clearwater Revival
-----------------------------------------|
------8~------6~-------5~------3~--------|
-----------------------------------------|
-7--9----5--7-----3--5----1--3-----------|
-----------------------------------------|
-----------------------------------5--2--|

Money
__________________________
Pink Floyd
-----------------------|
-----------------------|
---4-------------------|
-----4-----------------|
-2-----2------2--5--2--|
---------2--5----------|

Goin' Up The Country
__________________________
Canned Heat
-----------------------------------------------------|
-----6~----------------------------------------------|
-5-7----5-7-5-----3--7~--5-7-5-----3~--5-7-5-----3~--|
--------------3-5--------------3-5-----------3-5-----|
-----------------------------------------------------|
-----------------------------------------------------|
[Flute arranged for guitar]

Red House
_________________________
Jimi Hendrix
----11---------------11----------[11]-|---10--------------------[10]---|
----10----10---------10----10---------|---9-----9---------9---9------7-|
-11----11----11~--11----11----11------|-10---10---10~--10---10-------8-|
--------------------------------------|------------------------------9-|
--------------------------------------|--------------------------------|
--------------------------------------|--------------------------------|
Stairway To Heaven
_________________________
Led Zeppelin
-------5-7------7-8-----8-2----2--0----0--------------|
-----5-----5--------5-------3-------1----1----0--1-1--|
---5-----4---5--4-5---5-5-----2------2-----2--0--2-2--|
-7------------------------0-------2-------------------|
----------------------------------------------2--0-0--|
------------------------------------------------------|

Sunshine Of Your Love
__________________________
Cream
----------------------------------|
----------------------------------|
----------------------------------|
-12-12-10-12----------------------|
-------------12--11--10-----8-----|
-------------------------10---10--|

It's Only Rock & Roll
___________________________
Rolling Stones
--------------------------------------------------|
-10/12~--10/12-10-9----------9--------------------|
-11/13~--11/13-11-9--9----9--11-(13)-11p9------9~-|
---------------------9h11---------------9h11------|
--------------------------------------------------|
--------------------------------------------------|

Day Tripper
__________________________
Beatles
-------------------------|
-------------------------|
-------------------------|
----------2-0---4---0-2--|
--------2-----2---2------|
-0--3-4------------------|

One Way Out
___________________________
Allman Brothers Band
---------------------------------------------------|
---------------------------------------------------|
---------------------------------------------------|
---7--7-5---7-7---5-5-7-7---7--7-5---7-7---5-5-----|
----------7-----7------------------7-----7-----7-7-|
-5-------------------------5-----------------------|

You Shook Me All Night Long
___________________________
AC/DC
------------------------------|
-8--10--8-[8]--8-7---7------7-|
-7--7---7-[7]------7-7------7-|
---------------------0--------|
------------------------8-9---|
------------------------------|

Love Me Two Times
___________________________
The Doors
--------------------------------|
--------------------------------|
---------------------2~------2~-|
--------------------------------|
-0-3--0-5--0-3--0---------------|
------------------0-----[0]-----|

Heroin
____________________________
Velvet Underground
-2-------2---2--3-------3-----|-2-----3-2---2--3-------3---0-|
-3-----3---3----0-----0---0---|-3---------3----0-----0---0---|
-2---2----------0---0---------|-2---2----------0---0---------|
-0--------------0-------------|-0--------------0-------------|
----------------2-------------|----------------2-------------|
----------------3-------------|----------------3-------------|

Wonderful Tonight
____________________________
Eric Clapton
-----5b[7]--5--3-5~-----5b[7]--5-3----|
-3-3----------------3-3------------5~-|
--------------------------------------|
--------------------------------------|
--------------------------------------|
--------------------------------------|

Paranoid
______________________________
Black Sabbath
---------------------------|
---------------------------|
---------------------------|
-9-9-9-------7-9-----7-9---|
-7-7-7---7-9-----7-9-------|
---------------------------|

Black Betty
______________________________
Ram Jam
------------------------|----------------------|
------------------------|-------------7--9--7--|
---------------------7~-|-------------7--9--7--|
---7--9~-----7--9-9--7--|-7--9-9--x---7--7--7--|
---7--9------7--9-9--5--|-7--9-9--x------------|
---5--7------5--7-7-----|-5--7-7--x------------|

Smoke On the Water
_____________________________
Deep Purple
----------------------------------------|
----------------------------------------|
----------------------------------------|
----------------------------------------|
-5--8--10--5--8--11-10--5--8--10--8--5--|
-3--6--8---3--6--9--8---3--6--8---6--3--|

No Rain
______________________________
Blind Melon
-------------------------------------|-------------------------|
-10--10-12---10--10-12---10--10-12---|-10-9--------------------|
-----------9-----------9-----------9-|-----11--9--7-7--9-9-7-9-|
-------------------------------------|-------------------------|
-------------------------------------|-------------------------|
-------------------------------------|-------------------------|

Up On Cripple Creek
______________________________
The Band
-----------------------|
-----------------------|
------0---------0--2---|
-0--2-----0--2---------|
-----------------------|
-----------------------|

Walk This Way
______________________________
Aerosmith
-----------------------------------------------|
-----------------------------------------------|
-----------------------------------------------|
-------2-------2---------2-------2-------2--5~-|
-0-1-2---0-1-2-----0-1-2---0-1-2---0-1-2-------|
-----------------0-----------------------------|     
Добавлено: 13.08.2013
Другие материалы по этой песне:
  • Аккорды и текст

Страница создана 01.07.2013
http://primanota.ru/misc/guitar-riffs-chords.htm
Привет, Гость.
Предлагаем пройти революционный курс по гитаре.
Подарок от PrimaNota.Ru, забирай!