PrimaNota.ru - самый крупный в мире бесплатный архив песенных текстов, аккордов, табулатур и нот


Misc - Epic Sax Guy - бас-таба, видео

Регистрация Запомнить меня
Войти через:  Facebook Google Twitter Vk Yandex Mail.ru

Misc - Epic Sax Guy - бас-таба, видео

Печатать
Просмотров: 104
G:---------------------------------------------------------|
D:----7----7-7-7--5--7---7---5--7-7-7--5--7---7------------|
A:---------------------------------------------------------|
E:---------------------------------------------------------|

G:----5---------------------------------------------------|
D:----------7--5--3--3------------------------------------|
A:-----------------------------5-5-7-8-5------------------|
E:--------------------------------------------------------|

Repeat as many times as desired
Добавлено: 12.08.2013
Другие материалы по этой песне:
  • Аккорды и текст

Страница создана 12.08.2013
http://primanota.ru/misc/epic-sax-guy-chords.htm
Привет, Гость.
Предлагаем пройти революционный курс по гитаре.
Подарок от PrimaNota.Ru, забирай!