PrimaNota.ru - самый крупный в мире бесплатный архив песенных текстов, аккордов, табулатур и нот


Misc - Easy Penatonic Scales - таба, видео

Регистрация Запомнить меня
Войти через:  Facebook Google Twitter Vk Yandex Mail.ru

Misc - Easy Penatonic Scales - таба, видео

Печатать
Просмотров: 43
Title: Easy Pentatonic Scales
By: Misc. Unsigned Bands

Tabbed by:Jboy757
E-mail: jfittler@cox.net

Tuning:  E Standard

e|------------------------5-8------------------------------------------------|
B|--------------------5-8------5-8-------------------------------------------|
G|---------------5--7--------------5-7---------------------------------------|
D|-----------5-7-----------------------5-7-----------------------------------|
A|-------5-7--------------------------------5-7------------------------------|
E|--5-8-----------------------------------------5-8--------------------------|

e|------------------------7-10-----------------------------------------------|
B|--------------------7-10------7-10-----------------------------------------|
G|---------------7-9---------------7-9---------------------------------------|
D|-----------7-9-----------------------7-9-----------------------------------|
A|--------7-9-------------------------------7-9------------------------------|
E|--7-10---------------------------------------7-10--------------------------|


************************************

| /   slide up
| \   slide down
| h   hammer-on
| p   pull-off
| ~   vibrato
| +   harmonic
| x   Mute note
| b   Bend
| pb  Pre-bend
| br  Bend release
| pbr Pre-bend release
| brb Bend release bend

************************************
Добавлено: 03.11.2015
Другие материалы по этой песне:
  • Аккорды и текст

Страница создана 03.11.2015
http://primanota.ru/misc/easy-penatonic-scales-chords.htm
Привет, Гость.
Предлагаем пройти революционный курс по гитаре.
Подарок от PrimaNota.Ru, забирай!